t. See http://www.olga.net/faq/ for more information. #
Date: Wed, 29 Mar 2000 09:19:14 -0500
From: [email protected]
Subject: s/supergrass/born_again.tab
BORN AGAIN By Supergrass from the album SUPERGRASS (99)
-------------------------------------------------------
Tabbed by [email protected]
INTRO + VERSES:
I tried to tab it as right as possible...
----8--8--7-----7--7-----7---------
--5-----------5------5-----5-------
------------7----------7-----7--7--
-----------------------------------
-----------------------------------
-----------------------------------
Then come the violins:
I tried to tab them for guitars:
D5 F5
-------------
-------------
--7------10--
--7------10--
--5------8---
-------------
CHORUS:
A5 C5 D5
----------------
----------------
----------------
--7---10----12--
--7---10----12--
--5---8-----10--
and:
------------------
------------------
--4s5--4--0-------
------------2s4---
------------------
------------------
VERSE: play the riff along + the chords D5/F5
*play this riff just after:
----------------
--5s8---6--6s8--
------7---------
----------------
----------------
----------------
CHORUS:
A5 C5 D5
----------------
----------------
----------------
--7---10----12--
--7---10----12--
--5---8-----10--
and:
------------------
------------------
--4s5--4--0-------
------------2s4---
------------------
------------------
END on a D5
ENJOY!!!





Ваше мнение



Капча