Tabbed by Brian "Ansigod" McCall

THEO B - by Sunny Day Real Estate
==== = written by Jeremy Enigk and/or Dan Hoerner

Capo the second fret.

Bass and drum intro.

*1

G1

V V V V V
|---8----8----8----8----8----8-------8-------8------
|---11---11---11---11---11-----11------11------11---
|---------------------------------10------10------10
|-8----8----8----8----8----8------------------------
|---------------------------------------------------
|---------------------------------------------------

|-8-------8-----------8----8----8----8----8---------
|---11------11--------11---11---11---11---11--------
|------10------10-----10---10---10---10---10--------
|-----------------8-8----8----8----8----8-----------
|---------------------------------------------------
|---------------------------------------------------

G2

|---------------------------------------------------
|---6-----6-----6-----6-----6-----6-----6-----6-----
|-----5-----5-----5-----5-----5-----5-----5-----5---
|-3-----3-----3-----3-----3-----3-----3-----3-----3-
|---------------------------------------------------
|---------------------------------------------------

V V V V V
|---------------------------------------------------
|-6-----6-----6-----6----6----6----6----6-----------
|---5-----5-----5---5----5----5----5----5-----------
|-----3-----3-----3----3----3----3----3-------------
|---------------------------------------------------
|---------------------------------------------------

*2 ("...so...")

G1

|---------------------------------------------------
|---------------------------------------------------
|-8-8-8-8-8-8-8-8-8-8-8-8-8-7-7-7-7-8-8-8-8-8-8-8-8-
|-X-X-X-X-X-X-X-X-X-X-X-X-X-X-X-X-X-X-X-X-X-X-X-X-X-
|-6-6-6-6-6-6-6-6-6-6-6-6-6-5-5-5-5-6-6-6-6-6-6-6-6-
|---------------------------------------------------

|---------------------------------------------------
|---------------------------------------------------
|-8-8-8-8-8-7-7-7-7-8-8-8---7-7---------------------
|-X-X-X-X-X-X-X-X-X-X-X-X---X-X---------------------
|-6-6-6-6-6-5-5-5-5-6-6-6...5-5---------------------
|---------------------------------------------------

G2

|---------------------------------------------------
|---6-----6-----6-----6-----6-----6-----6-----------
|-----5-----5-----5-----5-----5-----5-----5...------
|-3-----3-----3-----3-----3-----3-----3-------------
|---------------------------------------------------
|---------------------------------------------------

*3

Both guitars, slight distortion

|---------------------------------------------------
|---------------------------------------------------
|-8-8-8---8---8--7--7--7--8-8-8---8---8--7--7--7----
|-X-X-X---X---X--X--X--X--X-X-X---X---X--X--X--X----
|-6-6-6---6---6--5--5--5--6-6-6---6---6--5--5--5----
|---------------------------------------------------

repeat *1, *2, and *3

*4

Note: Rhythm and number of notes is not exact (same applies
above but not to such an extreme).

G1
V V
|-------------------------------0-----0---------------
|-------------------------------0-----0---------------
|----------------------8--8---------------------------
|-9--9--9-9-5--5--5----8--8-8-9-----7-----------------
|-9--9--9-9-5--5--5--5-6--6-6-9-----7-----------------
|-7--7--7-7-3--3--3--3--------7---0-5---0-------------

V V
|-------------------------------0-----0---------------
|-------------------------------0-----0---------------
|----------------------8--8---------------------------
|-9--9--9-9-5--5--5----8--8-8-9-----7-----------------
|-9--9--9-9-5--5--5--5-6--6-6-9-----7-----------------
|-7--7--7-7-3--3--3--3--------7---0-5---0-------------

V V V V V V
|-------------------------------0-----0-----0-----0-----0-----0--
|-------------------------------0-----0-----0-----0-----0-----0--
|----------------------8--8--------------------------------------
|-9--9--9-9-5--5--5----8--8-8-9-----7-----9-----7-----9-----7----
|-9--9--9-9-5--5--5--5-6--6-6-9-----7-----9-----7-----9-----7----
|-7--7--7-7-3--3--3--3--------7---0-5---0-7---0-5---0-7---0-5---0

G2
V V
|-------------------------------0-----0---------------
|-------------------------------0-----0---------------
|-----------7--7--7----8--8-8-------------------------
|-9--9--9-9-7--7--7--7-X--X-X-9-----7-----------------
|-9--9--9-9-5--5--5--5-6--6-6-9-----7-----------------
|-7--7--7-7-------------------7---0-5---0-------------

V V
|-------------------------------0-----0---------------
|-------------------------------0-----0---------------
|-----------7--7--7----8--8-8-------------------------
|-9--9--9-9-7--7--7--7-X--X-X-9-----7-----------------
|-9--9--9-9-5--5--5--5-6--6-6-9-----7-----------------
|-7--7--7-7-------------------7---0-5---0-------------

V V V V V V
|-------------------------------0-----0-----0-----0-----0-----0--
|-------------------------------0-----0-----0-----0-----0-----0--
|-----------7--7--7----8--8-8------------------------------------
|-9--9--9-9-7--7--7--7-X--X-X-9-----7-----9-----7-----9-----7----
|-9--9--9-9-5--5--5--5-6--6-6-9-----7-----9-----7-----9-----7----
|-7--7--7-7-------------------7---0-5---0-7---0-5---0-7---0-5---0

For the rest of the song just repeat *4 with more rhythm strums
until the end which goes like this"

|---0-----0-----0-----0-----0-----0---------
|---0-----0-----0-----0-----0-----0---------
|-------------------------------------------
|-9-----7-----9-----7-----9-----7-----9--9\-
|-9-----7-----9-----7-----9-----7-----9--9\-
|-7---0-5---0-7---0-5---0-7---0-5---0-7--7\-

That's it. Comments, corrections, and flames welcome.




Ваше мнение



Капча