From: [email protected]
Date: Thu, 6 Jul 1995 21:48:16 -0400
Subject: in circles tab crd.
this is a song by sunny day real estate. The one thatis already posted is
[below] just so completely wrong that I took it as my obligation to correct it.
"in circles" by sunny day real estate transcribed by chris sullivan
(Intro) (riff1) (guitar1)
e|:--5--5--5-5--5--5--5--5------------------:|5\ ( \ :slide down )
b|:----6--6-6--6--6--6--6--6----------------:|6\
g
d
a
e
guitar2
|:D5 ///////F5/// a-string: 5--87----587:| (F5 at 8th fret)
verse:(both guitars)
|:Asus2/// A#/// F/////// Asus2/// A#/// F/////// :| (chords are picked)
meet me there in the blue (etc.)
refrain: (w/ riff 1)
guitar2:
|: D5/// (riff2) F5///(riff 2):|
i go in circles ( etc.)
riff 2 (for g.2)
e
b
g
d
a 1-0---1-0---1-0-
e------1------1------
(3rd part)
g1|:C5////. E5////. F5////. .... :| (F5 is at 8th fret rather than1st)
g2|:C5////. A#5////. F5////. riff2:|
e
b--13////-h16--11////-h13--10////-/....
g
d
a
e
(then intro into refrain, then refrain) (intro to refrain is verse chords)
5 chords are133 depending on whitch fret
Asus is x02200
A# is x13331
F is 133211
This Is a transcription to IN Circles by Sunny Day real estate
Transcribed bye:Kelly Kristek
I dont know if this is right or not but it sounds kind of close i did
this by ear.. if you find mistakes just fix them and upload them nevada.edu
i dont have an internet account i just upload these from an MBBS board
here..so ya cant mail me.. ENjoy
--------------------------------------------------------------------
Figure A (do this repeatedly)
e:---------------------------------------------------------------------------|
B:---------------------------------------------------------------------------|
G:---------------------------------------------------------------------------|
D:----10----10----10----10----10----10----10----10----10----10----10----10---|
A:-10----10----10----10----10----10----10----10----10----10----10----10----10|
E:---------------------------------------------------------------------------|

e:----------------------------------------------|
B:----------------------------------------------|
G:----------------------------------------------|
D:-10----10----10----10----10----10----10----10-|
A:----10----10----10----10----10----10----10----|
E:----------------------------------------------|

Meet...Me....There....
e:--5---5-5--5--5---5--5-5--5-5---1--1--1-1-1|
B:--5---5-5--5--5---6--6-6--6-6---1--1--1-1-1|
G:--5---5-5--5--5---5--5-5--5-5---2--2--2-2-2|
D:-------------------------------------------|
A:-------------------------------------------|
E:-------------------------------------------|
Repeat figure A then go to this
e:-------------------------------------|
B:-------------------------------------|
G:--7--7--7--7--3--3--3--3-------------|
D:--7--7--7--7--3--3--3--3--3--3--3--3-|
A:--5--5--5--5--1--1--1--1--3--3--3--3-|
E:--------------------------1--1--1--1-|
Bridge
e:--------------------------------------------------------|
B:--------------------------------------------------------|
G:--------------------------------------------------------|
D:--5-5-5-5-5---9-9-9-9-9---10-10-10-10-10----------------|
A:--3-3-3-3-3---7-7-7-7-7---8--8--8--8--8-----------------|
E:-------------------------------------------6-5-3-6-5-3-0|
Play this a few times
e:-------------------------------------------|
B:-------------------------------------------|
G:-5-5-5-5-5--5-7--3-3-3-3-3--3-5--2-2-2-2-2-|
D:-------------------------------------------|
A:-------------------------------------------|
E:-------------------------------------------|
| Then play this on a second guitar along |
| with the previous part |
| |
e:----------------------------------------|-|
B:----------------------------------------|-|
G:--5-5-5-5-5--9-9-9-9-9--10-10-10-10-10--|-|
D:----------------------------------------|-|
A:----------------------------------------|-|
E:----------------------------------------|-|




Ваше мнение



Капча