From: [email protected]
Date: Mon, 22 Jan 1996 21:53:59 -0500
Subject: "friday" by Sunny Day Real Estate
This is the first song of Sunny Day Real Estate's 2nd album (the pink one),
also the final one( :( ). Oh well, you can't choose people's faith's for
them, not that I have anything against reborn Christians, My uncle's one, but
I think he could have sung about his faith solo and the other dimention of
his soul with our friends Dan,William,and Nate. -Hats off to Jeremy -we want
a lyric Sheet
"Friday" by Sunny Day Real Estate® is fully transcribed Christopher Sullivan
([email protected]) -thank you
"Friday"
Intro:
guitar1:
E:-----1-----------0---------0---------0---\
B:---1----------1--------------------------- |
G:-3----3--2------------------2----------2-|----}Repeat
D------------------------2----------3--------/
A
E
guitar2:
E-------------0-0-0-----------------\
B-----1------1-1-1------------------|
G---3----2--2-2-2--------2------2-|-------}Repeat
D-3-----------------------2------3---/
A
E
Verse:
Guitar1:
E
B-6-6-6-6-6-6-6-6-------------------------------------------------------------
-----------------
G-6-6-6-6-6-6-6-6-------------------------------------------------------------
-----------------
D-8-8-8-8-8-8-8-8---8-8-8-8-7-8-10-10-10-10-10-10-10-10-10-10--8-7-8-7---
A-8-8-8-8-8-8-8-8-------------------------------------------------------------
---------------10
E
Guitar 2: Chords:
B-flat sus / / / / / / / / / / / / F / / / Fmaj7/ / / F/ / / Fmaj7/
/ /
(if playing solo, it sounds
more acurate to play a B-flat
minor Chord handled by Guitar1)
B-flat sus: B flat Minor: F: Fmaj7
E-1 1 1 0
B-1 2 1 1
G-3 3 2 2
D-3 3 3 3
A-1 1 x x
E-x x x x
Refrain:
Guitar1 (really hard to hear -faint in the right ear)
|:B-flat 5 / / / F 5 / / / C 5 / / / E 5 / / /:| B-flat 5 / / / A 5 / / /
G 5 / / / F 5 / / /
(@8th fret) (@7th fret)
Guitar 2
E
B
G10-10-10-10-10--9--9-9--5--5-5-5-5--9--9-9-10-10-10-10-10--15--15--15--14---.
..
D-(octaves!)

A-8--
-8 -8 --8 --8--7--7-7--3--3-3-3-3--7--7-7--8- -8 -8 -8 -8-
13--13--13--12---...
E
E
B
G...14-15-14-15-14-15-17-17-17-17-17-17-17-17-17-
D
A...12-13-12-13-12-13-15-15-15-15-15-15-15-15-15-
E
intro to second verse:
Guitar1
Fm / / / / / / / /
E-1
B-1
G-1
D-3
A-x
E-x
Guitar 2
E-8------8------8------8---------:|
B---9------9-------9------9-------:|
G-----10-----10-----10----10--:|
D
A
E




Ваше мнение



Капча