Use standard E tuning
Introduction
------------
| Guitar 1 |
|-----|---------5-9-5-------------5-9-5---|
|-(7)-|-7-5-7-9-------9---7-5-7-9-------9-|
|-(6)-|-----------------------------------|
|-----|-----------------------------------|
|-----|-----------------------------------|
|-----|-----------------------------------|
| Guitar 1 - cont'd |
|------------5--9-5----------------5--9-5----|
|--7-5--7--9---------9---7-5--7--9---------9-|
|--------------------------------------------|
|--------------------------------------------| Play 2x
|--------------------------------------------|
|--------------------------------------------|
| Guitar 2 |
|------------9-12-9----------------9-12-9----|
|-10-9-10-12--------12--10-9-10-12--------12-|
|--------------------------------------------|
|--------------------------------------------|
|--------------------------------------------|
|--------------------------------------------|
| Guitar 1 - cont'd |
|-12----11----10-----9----|
|----13----12----11----10-|
|-------------------------|
|-------------------------|
|-------------------------|
|-------------------------|
| Guitar 2 - cont'd |
|-14----13----12----11----|
|----14----13----12----11-|
|-------------------------|
|-------------------------|
|-------------------------|
|-------------------------|
Verse
-----
| Bass 1 - Tab'd for guitar |
|------------------------|------------------------|
|------------------------|------------------------|
|------------------------|------------------------|
|------------------------|------------------------|
|------------------------|------------------------|
|-2----2-5----5-7----5-7-|-2----2-5----5-7--------|
| Sometimes the accompanying power chords are played,
| late in the song, the following riff is played
| (First played at 2:22)
|------------------------|------------------------|
|------------------------|-7----7-5----5-4--------|
|------------------------|------------------------|
|------------------------|------------------------|
|------------------------|------------------------|
|------------------------|------------------------|
| Guitar 1 - Fill 1 (First played at 0:29)
|----------------------|
|----------------------|
|----------------------|
|----------------------|
|-2-0-2-3-2-0-2-3-2-0--|
|----------------------|
[ ^ ^ ^ ^ ^ ^ ^ ^ ^ ^ ]
P.M.
| Guitar 1 - Fill 2 (First played at 0:43)
|----------------------|
|-7--------------------|
|---8-6----------------|
|--------7-------------|
|----------------------|
|----------------------|
Chorus
------
|--------------------|
|--------------------|
|--------------------| Play a bunch of times
|--------------------|
|-4-4--7-----9-9-10--|
|-2-2--5-----7-7-8---|
Solo
----
|-------------/?-------/?--22b(24)-22b(24)-/?----/?---------|
|-------------/?--19vv-/?------------------/?----/?--/?-----|
|-11/16-16vv------------------------------------------------|
|-----------------------------------------------------------|
|-----------------------------------------------------------|
|-----------------------------------------------------------|
[ ^ ^ ^ ^ ^ ]
[ Tremolo effects ]
|------------------/?---19b(21)r(19)vvv-22b(24)-|
|------------------/?---------------------------|
|-11/16------/(22)------------------------------|
|-------16--------------------------------------|
|-----------------------------------------------|
|-----------------------------------------------|
[ ^ ]
[ and one last tremolo effect ]
(tremolo picking)
|-19-19-22-22-21-19-19-19-22-21-19-18-18-21-19-18-17-17-20-19-17----|
|----------------------------------------------------------------20-|
|-------------------------------------------------------------------|
|-------------------------------------------------------------------|
|-------------------------------------------------------------------|
|-------------------------------------------------------------------|





Ваше мнение



Капча