Sounds 100% correct This is the way I play it
Tune Half Step Down
P.M=.
\=slide
Intro
e------------------------------------------------------------------------------
b------------------------------------------------------------------------------
g------------------------------------------------------------------------------
d------------------------------------------------------------------------------
a-7-777-777-7777-7-777-777-7777-7-777-777-7777-7-777-777-7777-7-777-777-7777---
e------------------------------------------------------------------------------
All Palm Muted
e------------------------------------------------------------------------------
b------------------------------------------------------------------------------
g------------------------------------------------------------------------------
d------------------------------------------------------------------------------
a-9-999-999-9999-9-999-999-9999-9-999-999-9999-9-999-999-9999-10-101010-101010-
e------------------------------------------------------------------------------
All Palm Muted
e------------------------------------------------------------------------------
b------------------------------------------------------------------------------
g------------------------------------------------------------------------------
d------------------------------------------------------------------------------
a-10101010-10-101010-101010-10101010-12-121212-121212-12121212\----------------
e------------------------------------------------------------------------------
All Palm Muted
e------------------------------------------------------------------------------
b------------------------------------------------------------------------------
g------------------------------------------------------------------------------
d-5-5----------4-4----------2-2----------0-0----------0-0-7/9-7---0-0-7/9-7----
a-7-7-9/10-9-7-5-5-9/10-9-7-3-3-9/10-9-7-2-2-9/10-9-7-2-2------10-2-2------10--
e------------------------------------------------------------------------------
e------------------------------------------------------------------------------
b------------------------------------------------------------------------------
g------------------------------------------------------------------------------
d----------7-7-5-4-------------------------------------------------------------
a-9/10-9-7---------5/7---------------------------------------------------------
e------------------------------------------------------------------------------
e-3-2-0-2-0--3-2-0-2-0--3-2-0-2-0--3-2-0-2-0--0--------------------------------
b----------3----------1----------0----------4----------------------------------
g------------------------------------------------------------------------------
d------------------------------------------------------------------------------
a------------------------------------------------------------------------------
e------------------------------------------------------------------------------

e-0-0-3-2-0-2-0--3-2-0-2-0---3-2-0-2-0---3-2-0-2-0-----------------------------
b--------------3-----------1-----------0-----------4---------------------------
g------------------------------------------------------------------------------
d------------------------------------------------------------------------------
a------------------------------------------------------------------------------
e------------------------------------------------------------------------------

e------------------------------------------------------------------------------
b------------------------------------------------------------------------------
g-------------------------------------------------------------------------
d-5-5-5-5-5-5-5-5-5-5-5-5------------------------------------------------------------
a-7-7-7-7-7-7-7-7-7-7-7-7-----------------------------------------------
e------------------------------------------------------------------------------
Seas have parted blah blahThis Tab is 100% right my first tab but I know it is right
*=Palm Mute
x=Muffle String





Ваше мнение



Капча