Sum 41 - Motivation

Intro
e------------------------------------------------------------
B------------------------------------------------------------
G------------------------------------------------------------
D--2-2---2-2---2-2---2-2---7\--------------------------------
A--2-2---2-2---2-2---2-2---7\--------------------------------
E--0-0---0-0---0-0---0-0---5\--------------------------------

Riff 1 end on
e-------------------|----------------------------------------
B-------------------|----------------------------------------
G-------------------|----------------------------------------
D--2-2-2--6-7--7-6--|--9-9-9--6-7--7-6-----------------------
A--2-2-2--6-7--7-6--|--9-9-9--6-7--7-6-----------------------
E--0-0-0--4-5--5-4--|--7-7-7--4-5--5-4-----------------------

Verse end on
e--------------------------------------|---------------------
B--------------------------------------|---------------------
G--------------------------------------|---------------------
D--------2--------6--------7--------9--|---------------------
A--------2--------6--------7--------9--|-4-4-6-6-7-7-9-9-----
E--0m-0m-0--4m-4m-4--5m-5m-5--7m-7m-7--|---------------------
("What's the difference...")

Chorus
e------------------------------------------------------------
B------------------------------------------------------------
G--9--9--9--9-9-9--9--9--9-9---------------------------------
D--9--9--9--9-9-9--9--9--9-9-9--9--9--9-9-9--9--9--9-9-------
A--7--7--7--7-7-7--7--7--7-7-9--9--9--9-9-9--9--9--9-9-------
E----------------------------7--7--7--7-7-7--7--7--7-7-------
("Motivation such an aggrevation...")

(continued)
e------------------------------------------------------------
B------------------------------------------------------------
G--9--9--9--9-9-9--9--9--9-9---------------------------------
D--9--9--9--9-9-9--9--9--9-9-7--7--7--7-7-9--9--9--9-9--7--9-
A--7--7--7--7-7-7--7--7--7-7-7--7--7--7-7-9--9--9--9-9--7--9-
E----------------------------5--5--5--5-5-7--7--7--7-7--5--7-

Post-Chorus end on
e------------------------------------|-----------------------
B------------------------------------|-----------------------
G------------------------------------|-----------------------
D--2--2-2--9-9-9-9--7-7-7-7-7-7-7-7--|--4-------7------------
A--2--2-2--9-9-9-9--7-7-7-7-7-7-7-7--|--4-(x8)--7-(x8)-------
E--0--0-0--7-7-7-7--5-5-5-5-5-5-5-5--|--2-------5------------
("Nothing's new...")

Riff 2
e------------------------------------------------------------
B------------------------------------------------------------
G------------------------------------------------------------
D--2-2---------------7--7-7---9--9-9-------------------------
A--2-2--5-4-2-0------7--7-7---9--9-9-------------------------
E--0-0----------4-0--5--5-5---7--7-7-------------------------

Bridge A (Guitar 1)
e------------------------------------------------------------
B------------------------------------------------------------
G--6-------9----9--9--6--------------------------------------
D--6----9--9----9--9--6---7---9---9--9-9-9-9--2-2------------
A--4----9--7----7--7--4---7---9---9--9-9-9-9--2-2------------
E-------7-----------------5---7---7--7-7-7-7--0-0------------
("Can't pretend on doubt...")

Bridge B (Guitar 2)
e------------------------------------------------------------
B--4--5^------4--5^------4--5^--------4--5^------------------
G------------------------------------------------------------
D------------------------------------------------------------
A------------------------------------------------------------
E------------------------------------------------------------

Riff 3A (Guitar 1) 3B (Guitar 2, palm muted)
e------------------------|-----------------------------------
B------------------------|--5--5--5--5-4--5--5--5--5-4--5-4--
G-------4-4--------------|-----------------------------------
D--2-2--4-4--4-4--7-7----|-----------------------------------
A--2-2--2-2--4-4--7-7----|-----------------------------------
E--0-0-------2-2--5-5----|-----------------------------------

Riff 4 (Guitar 1) end on
e---------------------|--------------------------------------
B---------------------|--------------------------------------
G-----4-4-------------|--------------------------------------
D--2--4-4--4-4--7-7---|--7-7-7-7-7-7-7-7--9-9-9-9-9-9-9-9----
A--2--2-2--4-4--7-7---|--7-7-7-7-7-7-7-7--9-9-9-9-9-9-9-9----
E--0-------2-2--5-5---|--5-5-5-5-5-5-5-5--7-7-7-7-7-7-7-7----

Intro
Riff 1
Verse
Chorus
Intro
Verse
Chorus
Post-Chorus
Riff 2
Bridge A, B
Riff 3A
Riff 3A, 3B
Riff 4, Riff 3B (not palm muted)
Riff 1





Ваше мнение



Капча