Makes No Difference - Sum 41

h - Hammer on
p - Pull off
/ - Slide up
\ - Slide down
pm - Palm mute
(?) - Hold note
x - muted note
by:dark42
INTRO:
Guitar 1
e-|----------------------------------|
B-|----------------------------------| Play 4X
G-|----------------------------------|
D-|-7--6-9-8--8-8-4--7--6-9-8--9-9-11-|
A-|-5--6-7-8--6-6-4--5--6-7-8--7-7-11-|
E-|----------------------------------|

Guitar 2
e-|--------------------------------------------------------------|
B-|-4p4p4p4p5-5-3--4p4p4p4p10-10-9--4p4p4p4p5-5-3--4p4p4p4p6-6-5-| Waitfor Guitar 1
G-|-xpxpxpxpx-x-x--xpxpxpxpxx-xx-x--xpxpxpxpx-x-x--xpxpxpxpx-x-x-| to play 2X then
D-|-2p2p2p2p3-3-1--2p2p2p2p 8- 8-7--2p2p2p2p3-3-1--2p2p2p2p4-4-3-| play this 2 X
A-|--------------------------------------------------------------|
E-|--------------------------------------------------------------|

Verse 1:
Guitar 1
e-|---------------------------------------------------------------------|
B-|---------------------------------------------------------------------|
G-|--8-8-8-8-8-8-8-8--8-8-8-8-8-8-8-8--5-5-5-5-5-5-5-5------------------|
Play 4X
D-|--8-8-8-8-8-8-8-8--8-8-8-8-8-8-8-8--5-5-5-5-5-5-5-5--6-6-6-6-6-6-6-6-|
A-|--6-6-6-6-6-6-6-6--5-5-5-5-5-5-5-5--3-3-3-3-3-3-3-3--6-6-6-6-6-6-6-6-|
E-|-----------------------------------------------------4-4-4-4-4-4-4-4-|
pm. . . . . . . . . . . . . . . . . . . . . . . . . . . . . . . . . .
Guitar 2
e-|---------------------------------------------------------------------|
B-|---------------------------------------------------------------------| Wait for Guitar 1
G-|--8-8-8-8-8-8-8-8--8-8-8-8-8-8-8-8--5-5-5-5-5-5-5-5------------------| to play 2X then
D-|--8-8-8-8-8-8-8-8--8-8-8-8-8-8-8-8--5-5-5-5-5-5-5-5--6-6-6-6-6-6-6-6-| play this 2X
A-|--6-6-6-6-6-6-6-6--5-5-5-5-5-5-5-5--3-3-3-3-3-3-3-3--6-6-6-6-6-6-6-6-|
E-|-----------------------------------------------------4-4-4-4-4-4-4-4-|

Chorus: both Gtrs
E-|---------------------------------------------------------------------------------|
B-|---------------------------------------------------------------------------------| Play 2X
G-|-8p-8-8-8--8-8-8-8---------------------------------------------------------------|
D-|-8p-8-8-8--8-8-8-8--3p-3-3-3--3-3-3-3--6p-6-6-6--6-6-6-6--9p-9-9-9p-8-8-8p-8-8-8-|
A-|-6p-6-6-6--6-6-6-6--3p-3-3-3--3-3-3-3--6p-6-6-6--6-6-6-6--9p-9-9-9p-8-8-8p-8-8-8-|
E-|--------------------1p-1-1-1--1-1-1-1--4p-4-4-4--4-4-4-4--7p-7-7-7p-6-6-6p-6-6-6-|

Bridge:
Guitar 1
e-|--------------------------------------------------------------------|
B-|--------------------------------------------------------------------|
G-|-8p-8-8-8--8-8-8-------------------5p-5-5-5--5-5-5------------------|
D-|-8p-8-8-8--8-8-8--8p-8-8-8--8-8-8--5p-5-5-5--5-5-5--6p-6-6-6--6-6-6-|
A-|-6p-6-6-6--6-6-6--8p-8-8-8--8-8-8--3p-3-3-3--3-3-3--6p-6-6-6--6-6-6-|
E-|------------------6p-6-6-6--6-6-6-------------------4p-4-4-4--4-4-4-|

Guitar 2
e-|----------------------------------------------------------------|
B-|-4-4-4-4-10-10-9--4-4-4-4-6-6-5--4-4-4-4-10-10-9--4-4-4-4-5-5-3-|
G-|-x-x-x-x-xx-xx-x--x-x-x-x-x-x-x--x-x-x-x-xx-xx-x--x-x-x-x-x-x-x-|
D-|-2-2-2-2- 8- 8-7--2-2-2-2-4-4-3--2-2-2-2- 8- 8-7--2-2-2-2-3-3-1-|
A-|----------------------------------------------------------------|
E-|----------------------------------------------------------------|

Verse 2:
Guitar 1
e-|---------------------------------------------------------------------|
B-|---------------------------------------------------------------------|
Play 4X
G-|--8-8-8-8-8-8-8-8--8-8-8-8-8-8-8-8--5-5-5-5-5-5-5-5------------------|
D-|--8-8-8-8-8-8-8-8--8-8-8-8-8-8-8-8--5-5-5-5-5-5-5-5--6-6-6-6-6-6-6-6-|
A-|--6-6-6-6-6-6-6-6--5-5-5-5-5-5-5-5--3-3-3-3-3-3-3-3--6-6-6-6-6-6-6-6-|
E-|-----------------------------------------------------4-4-4-4-4-4-4-4-|
pm. . . . . . . . . . . . . . . . . . . . . . . . . . . . . . . . . .
Guitar 2
e-|---------------------------------------------------------------------|
B-|---------------------------------------------------------------------| wait for guitar 1
G-|--8-8-8-8-8-8-8-8--8-8-8-8-8-8-8-8--5-5-5-5-5-5-5-5------------------| to play 2X
D-|--8-8-8-8-8-8-8-8--8-8-8-8-8-8-8-8--5-5-5-5-5-5-5-5--6-6-6-6-6-6-6-6-| then play this 2X
A-|--6-6-6-6-6-6-6-6--5-5-5-5-5-5-5-5--3-3-3-3-3-3-3-3--6-6-6-6-6-6-6-6-|
E-|-----------------------------------------------------4-4-4-4-4-4-4-4-|

Chorus: both Gtrs
E-|---------------------------------------------------------------------------------|
B-|---------------------------------------------------------------------------------| Play 2X
G-|-8p-8-8-8--8-8-8-8---------------------------------------------------------------|
D-|-8p-8-8-8--8-8-8-8--3p-3-3-3--3-3-3-3--6p-6-6-6--6-6-6-6--9p-9-9-9p-8-8-8p-8-8-8-|
A-|-6p-6-6-6--6-6-6-6--3p-3-3-3--3-3-3-3--6p-6-6-6--6-6-6-6--9p-9-9-9p-8-8-8p-8-8-8-|
E-|--------------------1p-1-1-1--1-1-1-1--4p-4-4-4--4-4-4-4--7p-7-7-7p-6-6-6p-6-6-6-|

Solo:
Guitar 1
e-|----------------------------------------|
B-|----------------------------------------| Play 4X
G-|8p-8-8-8--8-8-8-8-----------------------|
D-|8p-8-8-8--8-8-8-8-x-x-8p-8-8-8--6-6-6-6-|
A-|6p-6-6-6--5-5-5-5-x-x-8p-8-8-8--6-6-6-6-|
E-|------------------x-x-6p-6-6-6--4-4-4-4-|

Guitar 2
e-|----------------------------------------------------------------------------------------------|
B-|-10-10-10-10-10-12-12-12--10-10-10-10-10-9-9-9--10-10-10-10-10-12-12-12--10-10-10-10-10-6-6-6-|
G-|-xx-xx-xx-xx-xx-xx-xx-xx--xx-xx-xx-xx-xx-x-x-x--xx-xx-xx-xx-xx-xx-xx-xx--xx-xx-xx-xx-xx-x-x-x-|
D-|- 8- 8- 8- 8- 8-10-10-10-- 8- 8- 8- 8- 8-7-7-7-- 8- 8- 8- 8- 8-10-10-10-- 8- 8- 8- 8- 8-4-4-4-|
A-|----------------------------------------------------------------------------------------------|
E-|----------------------------------------------------------------------------------------------|
PLAY THIS 2X

Verse 3:
Guitar 1
e-|-------------------|
B-|-------------------| Play 24X
G-|-3--3-3-3--3-3-3-3-|
D-|-3--3-3-3--3-3-3-3-|
A-|-1--1-1-1--1-1-1-1-|
E-|-------------------|
pm. . . . . . . . . .
Guitar 2
e-|-------------|
B-|---8---------| Play 5X
G-|-----9-------|
D-|-------10----|
A-|-------------|
E-|-------------|

After: both Guitars
e-|------------------|
B-|------------------| Picking scrap
G-|--xxxx-//////////-|
D-|--xxxx-//////////-|
A-|--xxxx-//////////-|
E-|------------------|

Chorus: both Guitars
E-|---------------------------------------------------------------------------------|
B-|---------------------------------------------------------------------------------| Play 2X
G-|-8p-8-8-8--8-8-8-8---------------------------------------------------------------|
D-|-8p-8-8-8--8-8-8-8--3p-3-3-3--3-3-3-3--6p-6-6-6--6-6-6-6--9p-9-9-9p-8-8-8p-8-8-8-|
A-|-6p-6-6-6--6-6-6-6--3p-3-3-3--3-3-3-3--6p-6-6-6--6-6-6-6--9p-9-9-9p-8-8-8p-8-8-8-|
E-|--------------------1p-1-1-1--1-1-1-1--4p-4-4-4--4-4-4-4--7p-7-7-7p-6-6-6p-6-6-6-|

Bridge 3:
Guitar 1
e-|--------------------------------------------------------------------|
B-|--------------------------------------------------------------------| Play 2X
G-|-8p-8-8-8--8-8-8-------------------5p-5-5-5--5-5-5------------------|
D-|-8p-8-8-8--8-8-8--8p-8-8-8--8-8-8--5p-5-5-5--5-5-5--6p-6-6-6--6-6-6-|
A-|-6p-6-6-6--6-6-6--8p-8-8-8--8-8-8--3p-3-3-3--3-3-3--6p-6-6-6--6-6-6-|
E-|------------------6p-6-6-6--6-6-6-------------------4p-4-4-4--4-4-4-|

Guitar 2
e-|----------------------------------------------------------------|
B-|-4-4-4-4-10-10-9--4-4-4-4-6-6-5--4-4-4-4-10-10-9--4-4-4-4-5-5-3-| Play 2X
G-|-x-x-x-x-xx-xx-x--x-x-x-x-x-x-x--x-x-x-x-xx-xx-x--x-x-x-x-x-x-x-|
D-|-2-2-2-2- 8- 8-7--2-2-2-2-4-4-3--2-2-2-2- 8- 8-7--2-2-2-2-3-3-1-|
A-|----------------------------------------------------------------|
E-|----------------------------------------------------------------|

Outro:
Guitar 1
e-|-----------------------------------|
B-|-----------------------------------| Play 2X
G-|-----------------------------------|
D-|-7--6-9-8--8-8-4--7--6-9-8--9-9-11-|
A-|-5--6-7-8--6-6-4--5--6-7-8--7-7-11-|
E-|-----------------------------------|

Guitar 2
e-|--------------------------------------------------------------|
B-|-4p4p4p4p5-5-3--4p4p4p4p10-10-9--4p4p4p4p5-5-3--4p4p4p4p6-6-5-|
G-|-xpxpxpxpx-x-x--xpxpxpxpxx-xx-x--xpxpxpxpx-x-x--xpxpxpxpx-x-x-|
D-|-2p2p2p2p3-3-1--2p2p2p2p 8- 8-7--2p2p2p2p3-3-1--2p2p2p2p4-4-3-|
A-|--------------------------------------------------------------|
E-|--------------------------------------------------------------|

THEN play:
Guitar 1
e-|-------------|
B-|-------------|
G-|-------------|
D-|-15-15-13-11-|
A-|-15-15-13-11-|
E-|-------------|

Guitar 2
e-|-----------|
B-|-10-10-9-4-|
G-|-xx-xx-x-x-|
D-|- 8- 8-7-2-|
A-|-----------|
E-|-----------|





Ваше мнение



Капча