Intro A (Guitar 1, palm muted)
e-----------------------------------------------------------
B-----------------------------------------------------------
G-----------1-2-2--4-2------------------1-------------------
D----2----------------------------1-2-4---------------------
A------------------------0-0-0--0---------------------------
E--0-----0--------------------------------------------------
("The faster we're falling...")

Intro B (Guitar 2, palm muted) end on:(1st) (2nd)
e----------------4---------------|-----------|--------------
B------------5-------------------|-----------|--------------
G--4-4-4--4----4---4---4-4-4--4--|--2-1-2-4--|--2-1---------
D--------------------------------|-----------|------4-2-----
A--------------------------------|-----------|--------------
E--------------------------------|-----------|--------------

Riff 1 (Guitar 1)
e--4---4-4----0---0-0----4---4-4----------------------------
B--5---5-5----2---2-2----5---5-5----------------------------
G--4---4-4----2---2-2----4---4-4----------------------------
D----------------------------------7m-7m-7m-7m-7-7-7-7------
A----------------------------------7m-7m-7m-7m-7-7-7-7------
E----------------------------------5m-5m-5m-5m-5-5-5-5------
("Maybe we're just trying too hard...")

Chorus Fill 1
e----------------------|------------------------------------
B----------------------|------------------------------------
G----------------------|--9-9-9-9--7-7-7-7------------------
D--2-2-2-2--7-7-7-7----|--9-9-9-9--7-7-7-7--7-7-7-7--x------
A--2-2-2-2--7-7-7-7----|--7-7-7-7--5-5-5-5--7-7-7-7--x-(x8)-
E--0-0-0-0--5-5-5-5----|--------------------5-5-5-5--x------

Post-Chorus A (Guitar 1) B (Guitar 2) Fill 2
e------------------------|----------------------|-----------
B------------------------|----------------------|-----------
G-------9----------------|-------13-------------|-----------
D--2-2--x--7-7--6--7-----|--2-2---x--7-7--6--7--|--7-6-4-6--
A--2-2--7--7-7--6--7-----|--2-2--11--7-7--6--7--|--7-6-4-6--
E--0-0-----5-5--4--5-----|--0-0------5-5--4--5--|--5-4-2-4--
-
Verse 1 end on
e--------------------------------------|--------------------
B--------------------------------------|--------------------
G--------------------------------------|--------------------
D--2-2--6-7-7--7--2-2--6-7-7--6-7-7--7-|-2-2m------7-7m-----
A--2-2--6-7-7--7--2-2--6-7-7--6-7-7--7-|-2-2m-(x7)-7-7m-(x7)
E--0-0--4-5-5--5--0-0--4-5-5--4-5-5--5-|-0-0m------5-5m-----
("Seems like each time...")

Riff 2
e-----------------------------------------------------------
B-----------------------------------------------------------
G--------9--------9--------9--------------------------------
D--2-2-2-x--2-2-2-x--2-2-2-x--2-2-2--x-x-x-x-x-x------------
A--2-2-2-7--2-2-2-7--2-2-2-7--2-2-2--x-x-x-x-x-x------------
E--0-0-0----0-0-0----0-0-0----0-0-0--x-x-x-x-x-x------------

Solo A (Guitar 1)
e-----------------------------------------------------------
B-----------------------------------------------------------
G------------------------7-7-7-7-7--------------------------
D--2-2-2-2-2--4-4-4-4-4--7-7-7-7-7--7-7-7-7-7--6------------
A--2-2-2-2-2--4-4-4-4-4--5-5-5-5-5--7-7-7-7-7--6------------
E--0-0-0-0-0--2-2-2-2-2-------------5-5-5-5-5--4------------

Solo B (Guitar 2)
e--5p4p0--5p4p0--7p5p0--7p5p0-------------0h4--0h5--0h7-----
B------------------------------4h5p4h5/7--------------------
G-----------------------------------------------------------
D-----------------------------------------------------------
A-----------------------------------------------------------
E-----------------------------------------------------------

(continued) end on: 1st 2nd
e--0h5--0h4--0h5--|--0h2--0h4--|--0--12/14\12---------------
B-----------------|------------|----------------------------
G-----------------|------------|----------------------------
D-----------------|------------|----------------------------
A-----------------|------------|----------------------------
E-----------------|------------|----------------------------

Verse 2A (Guitar 1) 2B (Guitar 2)
e----------------------|------------------------------------
B----------------------|--4/5-(x8)--------------------------
G----------------------|------------------------------------
D--2-2--4-4--7-7--9-9--|------------4/6-(x8)----------------
A--2-2--4-4--7-7--9-9--|------------------------------------
E--0-0--2-2--5-5--7-7--|------------------------------------
("I can't sit back and wonder why...")

Outro A (Guitar 1, each hit 4 times)
e-----------------------------------------------------------
B-----------------------------------------------------------
G--9---7-----------9---7------------------------------------
D--9---7---7---7---9---7---7---10---------------------------
A--7---5---7---7---7---5---7---10---------------------------
E----------5---5-----------5----8---------------------------

Outro B (Guitar 2) end on
e--0--0-0--0--0--0-0--0--0--0-0--0-0-0-0-0--|--0------------
B--9-10-9-10-12-10-9-10--9-10-9-10-9-7-5-7--|--5------------
G-------------------------------------------|---------------
D-------------------------------------------|---------------
A-------------------------------------------|---------------
E-------------------------------------------|---------------

Intro A, B
Riff 1, Intro B
Chorus (end on Fill 1)
Post-Chorus A
Post-Chorus A, B (end on Fill 2)
Verse 1
Chorus (end on Fill 1)
Riff 2
Verse 2A
Verse 2A, 2B
Post-Chorus A, B
Outro A, B





Ваше мнение



Капча