HEART ATTACK – Sum 41
--------------------------------------------------------------------------------
Intro / Verse (2X for Intro, 2X for Verse)
e|--------2-------------------2-------------------2-----------------2----------
B|----2-------2---2-------2-------2---2-------2-------2---2-----2-------2---2--
G|-----------------------------------------------------------------------------
D|--4---4---4---4-------3---3---3---3-------1---1---1---1-----1---1---1---1----
A|-----------------------------------------------------------------------------
E|-----------------------------------------------------------------------------
Verse (Play 2X) (Guitar 1 plays intro, Guitar 2 plays the following)
Early morning, made by warnings, What’s the point of the alarm that I’m ignoring
It’s either raining, I’m not complaining, but waking up is hard to do so
e|-----------------------------------------------------------------------------
B|-----------------------------------------------------------------------------
G|---x-x-11—-x-x-11--x-x-10--x-x-10--x-x-8--x-x-8--x-x-8--x-x-8----------------
D|---x-x-11—-x-x-11--x-x-10--x-x-10--x-x-8--x-x-8--x-x-8--x-x-8----------------
A|---x-x-9---x-x-9---x-x-8---x-x-8---x-x-6--x-x-6--x-x-6--x-x-6----------------
E|-----------------------------------------------------------------------------
Chorus (X4)
Turn your head it’s back to bed with no delay………
e|-----------------------------------------------------------------------------
B|-----------------------------------------------------------------------------
G|-----------6-6--4-4----------------------------------------------------------
D|--4-4-4-4--6-6--4-4----------------------------------------------------------
A|--4-4-4-4--4-4--2-2----------------------------------------------------------
E|--2-2-2-2--------------------------------------------------------------------
After Chorus Part
e|------------------------------------------------------------------------------
B|------------------------------------------------------------------------------
G|--11--11--11--11---10--10--10--10---8--8--8--8--------------------------------
D|--11--11--11--11---10--10--10--10---8--8--8--8--------------------------------
A|--9---9---9---9----8---8---8---8----6--6--6—-6--------------------------------
E|--------------------------------------------------6h7—6h7---------------------
e|------------------------------------------------------------------------------
B|------------------------------------------------------------------------------
G|--11--11--11--11---10--10--10--10---8--8--8--8--------------------------------
D|--11--11--11--11---10--10--10--10---8--8--8--8--------------------------------
A|--9---9---9---9----8---8---8---8----6--6--6—-6--------------------------------
E|--------------------------------------------------6h7—6h7--9------------------
Intro (X2)
Verse (X2) (NO INTRO PART ON SECOND VERSE)
Chorus (X4)
Interlude (5X) (Palm Muted)
e|------------------------------------------------------------------------------
B|------------------------------------------------------------------------------
G|--11-11----11-11----11-11----11-11----11-11-11-11-----------------------------
D|--11-11----11-11----11-11----11-11----11-11-11-11-----------------------------
A|--9--9-----9--9-----9--9-----9--9-----9--9--9--9------------------------------
E|------------------------------------------------------------------------------
Intro (5X)
Intro & Verse (2X)
Chorus
Last Part (2X, then 2 times again along with Interlude)
e|------------------------------------------------------------------------------
B|------------------------------------------------------------------------------
G|--11-11----9-9----11-11----9-9------------------------------------------------
D|--11-11----9-9----11-11----9-9------8h9—8h6-----------------------------------
A|--9--9-----7-7----9--9-----7-7------------------------------------------------
E|------------------------------------------------------------------------------
End on
e|-----------------------
B|-----------------------
G|-11--------------------
D|-11---let ring…--------
A|-9---------------------
E|-----------------------





Ваше мнение



Капча