Group: SUM 41
Song: Handle This
Album: All Killer No Filler
Instrument: Guitar
Dropped D tuning

Intro A (Guitar 1)
e-----------------------------------------------------------
B-----------------------------------------------------------
G-----------------------------------------------------------
D--0-0---7-7---5-5--x-x-x-x--5-5--x-x-x-x-------------------
A--0-0---7-7---5-5--x-x-x-x--5-5--x-x-x-x-------------------
D--0-0---7-7---5-5--x-x-x-x--5-5--x-x-x-x-------------------

Intro B (Guitar 2) end on
e-----------------------------------------------------|-----
B-----------------------------------------------------|-----
G--11-12-14--11-12-11-9-9\7--7--7--7--7--7--11-12-11--|--7--
D---x--x--x---x--x--x-x-x----x--x--x--x--x---x--x--x--|--x--
A---9-10-12---9-10--9-7-7\5--5--5--5--5--5---9-10--9--|--5--
D-----------------------------------------------------|-----

Verse 1 (each hit 8 times)
e-----------------------------------------------------------
B-----------------------------------------------------------
G--7m--7m---------------------------------------------------
D--7m--7m---7m--7m---9m--9m---5--5--------------------------
A--5m--5m---7m--7m---9m--9m---5--5--------------------------
D-----------7m--7m---9m--9m---5--5--------------------------
("You say in doubt...")

Chorus (each hit 4 times)
e-----------------------------------------------------------
B-----------------------------------------------------------
G----------7---------------7--------------------------------
D--9---5---7---7---2---5---7---7---2---5--------------------
A--9---5---5---7---2---5---5---7---2---5--------------------
D--9---5-------7---2---5-------7---2---5--------------------
("Cause I will bring you down...")

Verse 2A (Guitar 1, each hit 4 times)
e-----------------------------------------------------------
B-----------------------------------------------------------
G-------------------------------------7--9--11--9-----------
D--7m-7m-7m-7m--9m-9m-9m-9m--5-5-5-5--x--x---x--x-----------
A--7m-7m-7m-7m--9m-9m-9m-9m--5-5-5-5--5--7---9--7-----------
D--7m-7m-7m-7m--9m-9m-9m-9m--5-5-5-5------------------------

(continued; end on)
e-----------------------------------------------------------
B-----------------------------------------------------------
G-----------11--12--11--9-----------------------------------
D--5-5-5-5---x---x---x--x-----------------------------------
A--5-5-5-5---9--10---9--7-----------------------------------
D--5-5-5-5--------------------------------------------------

Verse 2B (Guitar 2)
e-----------------------------------------------------------
B-----------------------------------------------------------
G---------------6-7---------------6-7-----------------------
D--7m-7m-7m-7m-------7m-7m-7m-7m----------------------------
A-----------------------------------------------------------
D-----------------------------------------------------------

Solo
e-------10-12-10--14--14/15\14--10\------10h12p10h12--14----
B--7/8-------------------------------12---------------------
G-----------------------------------------------------------
D-----------------------------------------------------------
A-----------------------------------------------------------
D-----------------------------------------------------------

(continued)
e--14/15\14--10\--------------------------------------------
B-----------------12-10-----------10-10-------10-10--10-12--
G-----------------------12-11-12--------11-12---------------
D-----------------------------------------------------------
A-----------------------------------------------------------
D-----------------------------------------------------------

(continued)
e------------------------------------------14---------------
B-10------------------------------15----------------15------
G-----12-11-9--12-11--------14-14----14-14----14-14----14---
D--------------------12-12----------------------------------
A-----------------------------------------------------------
D-----------------------------------------------------------

(continued)
e-------12p10-----12p10-----12p10----12p10----12p10---------
B-------------10--------10--------10-------10-------10^-----
G--14-------------------------------------------------------
D-----------------------------------------------------------
A-----------------------------------------------------------
D-----------------------------------------------------------

Riff A (Guitar 1) Riff B (Guitar 2)
e---------------------------------------|-------------------
B---------------------------------------|-------7h8-/10-\---
G-----------7-7--7h9-/11---7-7--7h9-/11-|--7-7--------------
D--5--------7-7------------7-7----------|--7-7--------------
A--5-(x16)--5-5------------5-5----------|--5-5--------------
D--5------------------------------------|-------------------

Bridge (each hit 4 times)
e-----------------------------------------------------------
B-----------------------------------------------------------
G-----------------------------------------------------------
D--x---7--7---2--2---5--5---5m--5m--5--5--------------------
A--x---7--7---2--2---5--5---5m--5m--5--5--------------------
D--x---7--7---2--2---5--5---5m--5m--5--5--------------------
("And it's true what you're going through...")

Outro A (Guitar 1)
e-----------------------------------------------------------
B-----------------------------------------------------------
G--7---------------------------------7-7-7------------------
D--7-(x16)--7--------5-5--x-5-5-5-5--7-7-7--7--7-7-7--------
A--5--------7-(x16)--5-5--x-5-5-5-5--5-5-5--7--7-7-7--------
D-----------7--------5-5--x-5-5-5-5---------7--7-7-7--------

Outro B (Guitar 2) end on
e------------------------------------|----------------------
B------------------------------------|----------------------
G--9-11-9-11--9-11-9-11--12-14-12-11-|-9-11-7-12-12-11-11-9-
D--x--x-x--x--x--x-x--x---x--x--x--x-|-x--x-x--x--x--x--x-x-
A--7--9-7--9--7--9-7--9--10-12-10--9-|-7--9-5-10-10--9--9-7-
D------------------------------------|----------------------

Intro A, B
Verse 1
Chorus
Intro A, B
Verse 2
Chorus
Chorus, Solo
Riff A
Riff A, B
Bridge
Chorus
Outro A
Outro A, B





Ваше мнение



Капча