Услышал Песню в какой-то 20-ке или даже 30-ке на МТВ -проперся
до офигения
..вот как это чудо играется...
Вступление
e---------------------------------|
B---------------------------------|
G---------------------------------|
D---------------------------------|
A6-----------4--6-----------4--2--|
E|--4--5--7-----4--5--7-----|--4--5--7-----4--5--7--------|
VERSE 1
e-------------------------------|
B-------------------------------|
G-------------------------------|
D|--------2--1--2---------|--------2--1--2--------------|
A------2--2---|--0--0-----------0-----------|
E|--0--0---------------------------4--2--0--|
VERSE 2
e---------------------------------------|
B---------------------------------------|
G|--9--9--9--9--9--9--9--9--6--6--6--6--------------|
D|--9--9--9--9--9--9--9--9--6--6--6--6--7--7--7--7--|
A|--7--7--7--7--7--7--7--7--4--4--4--4--7--7--7--7--|
E---------------------------5--5--5--5--|
Припев aka CHORUS
e-------|
B-------|
G|--9-----------|--9------------|
D|--9--9--7--7--|--9--9--11--7--|
A|--7--9--7--7--|--7--9--11--7--|
E|-----7--5--5--|-----7--9---5--|
Вырубаем Distortion
E E/D C#m A5
e|---------0-----------0---------------------||
B-0-----------0--|--------5------------------||
G|*-----1-----------1--------6--------6-----*||
D|*--2-----------1-----------|-----6-----------------7--*||
A----------------|--4--------------7---------||
E-------------------5------------||

e|---------0-----------0---------------------||
B-0-----------0--|--------5------------------||
G|*-----1-----------1--------6--------6-----*||
D|*--2-----------2-----------|-----6-----------------7--*||
A----------------|--4--------------7---------||
E-------------------5------------||
Опять под Distorsion

D5 E5 D5 E5 A5 8x
e--------------------------|
B--------------------------|
G|*--7--9------7--9-------*||--7-7-7-7-7-7-7-7-7-7-7-7-7-7-7-7-|
D|*--7--9------7--9--7----*||--7-7-7-7-7-7-7-7-7-7-7-7-7-7-7-7-|
A|---5--7------5--7--7-----||--5-5-5-5-5-5-5-5-5-5-5-5-5-5-5-5-|
E--------5-----------------|

e-----------------------||
B-----------------------||
G|--7-7-7-7-7-7-7-7-7-7-7-7-7-7-7-7-||
D|--7-7-7-7-7-7-7-7-7-7-7-7-7-7-7-7-||
A|--5-5-5-5-5-5-5-5-5-5-5-5-5-5-5-5-||
E-----------------------||
Последняя 775-ка let ring





Ваше мнение



Капча