its correct i think.
INTRO:
e|-----------------------| (2x)
B|-----------------------|
G|------------6-6--x-----|
D|---3--x-----6-6--x-----|
A|---3--x-----4-4--x-----|
D|---3--x----------------|
e|-----------------------|
B|-----------------------|
G|------------6-6---6-6--|
D|---3--x-----6-6---6-6--|
A|---3--x-----4-4---4-4--|
D|---3--x----------------|
e|---x-x-x-x-x-x-x-x-----|
B|---x-x-x-x-x-x-x-x-----|
G|---x-x-x-x-x-x-x-x-----|
D|---x-x-x-x-x-x-x-x-----|
A|---x-x-x-x-x-x-x-x-----|
D|---x-x-x-x-x-x-x-x-----|




Ваше мнение



Капча