-------------------------------------------------------------------------------
Underwear by Sugarcult
-------------------------------------------------------------------------------
Tabbed by: Gareth Orchard
Email: [email protected]

Tuning:

e|-------2-------------------------------------------------------------------|
B|-------3------2--------0------2--------------------------------------------|
G|--------------2--------0------2--------------------------------------------|
D|-------------------2---0--0------2-----------------------------------------|
A|---2---------------4-------------4-----------------------------------------|
E|--------------2---------------2--------------------------------------------|

Play 3x

e|------2--------------------------------------------------------------------|
B|------2--------------------------------------------------------------------|
G|---------------------------------------------------------------------------|
D|------0--------------------------------------------------------------------|
A|---------------------------------------------------------------------------|
E|---------------------------------------------------------------------------|

This pretty much goes right through the whole piece.
I am positive this tab is right. Email me if you think so too.
===============================================================================




Ваше мнение



Капча