Intro/Chorus Fill: Jazzy Feel, of course!
G-7----------------7-----------7==================|
D-----7---5---7--------7---5----------------------|
A-------------------------------------------------|
E-------------------------------------------------|
G-------------------------------------------------|
D-9-------5---5-4===------------------------------|
A-------------------------------------------------|
E-------------------------------------------------|
G-----------------------------------7=============|
D-9---7---5---7-----9---7---5---7-----------------|
A-------------------------------------------------|
E-------------------------------------------------|
It might be an octave lower. I'm a guitarist.
I'm not so sure about it though.
Enjoy. Punk!




Ваше мнение



Капча