Standard Eb
time signature4/4

Intro and verse

eb-3---3---3---3---|3---3---3---3---|3---3---3---3---|3---3---3---3---|
Bb-3---3---3---3---|3---3---3---3---|3---3---3---3---|3---3---3---3---|
Gb---0---0---0---0-|--0---0---0---0-|--0---0---0---0-|--0---0---0-----|
Db-----------------|----------------|----------------|--------------0-|
Ab-----------------|----------------|----------------|----------------|
Eb-----------------|----------------|----------------|----------------|

eb-0---0---0---0---|0---0---0---0---|
Bb-0---0---0---0---|0---0---0---0---|
Gb-----------------|----------------|
Db---2---2---2---2-|--2---2---2---2-|
Ab-----------------|----------------|
Eb-----------------|----------------|

Chorus

Chords: /*In E, it would be G and C*

F# Cb
Q Q .8 16Q Q Q .8 16Q

End on F#




Ваше мнение



Капча