Song: Over
By: Sugarcult
Album: Palm Trees And Power Lines
tabbed by: pwrchrdprincess
* = palm mute
~ = let ring
h = hammer on
Intro:
|-----------------------------------------------------------|
|-----------------------------------------------------------|
|--3333-6666---------------3333-6666------------------------|
|--3333-6666-44444444--x3--3333-6666-4~~-44-44--------------|
|--1111-4444-44444444------1111-4444-4~~-44-44--------------|
|------------22222222----------------2~~-22-22--------------|
**** **** ******** **** ****

Verse 1:
|-----------------------------------------------------------|
|-----------------------------------------------------------|
|--3333-6666---------------3333-6666------------------------|
|--3333-6666-44444444--x3--3333-6666-4444-4~----------------|
|--1111-4444-44444444------1111-4444-4444-4~----------------|
|------------22222222----------------2222-2~----------------|
**** **** ******** **** **** ****
Chorus:
|-----------------------------------------------------------|
|-----------------------------------------------------------|
|--33333333-66666666----------------------------------------|
|--33333333-66666666-44444444-66666666--x2------------------|
|--11111111-44444444-44444444-66666666----------------------|
|--------------------22222222-44444444----------------------|
Interlude 1:
|-----------------------------------------------------------|
|-----------------------------------------------------------|
|--3333-6666------------------------------------------------|
|--3333-6666-4444-4~----------------------------------------|
|--1111-4444-4444-4~----------------------------------------|
|------------2222-2~----------------------------------------|
**** **** ****
Verse 2:
|-----------------------------------------------------------|
|-----------------------------------------------------------|
|--3333-6666---------------3333-6666------------------------|
|--3333-6666-44444444--x3--3333-6666-44444444---------------|
|--1111-4444-44444444------1111-4444-44444444---------------|
|------------22222222----------------22222222---------------|
**** **** ******** **** **** *** (gradually release mute)
Chorus
Solo 1 (guitar 1):
|----------886666666666-------------------------------------|
|--6h7-6h7--------------------------------------------------|
|------------------------x4---------------------------------|
|-----------------------------------------------------------|
|-----------------------------------------------------------|
|-----------------------------------------------------------|
Solo 1 (guitar 2):
|-----------------------------------------------------------|
|-----------------------------------------------------------|
|--3333-6666------------------------------------------------|
|--3333-6666-44444444--x4-----------------------------------|
|--1111-4444-44444444---------------------------------------|
|------------22222222---------------------------------------|
Interlude 2:
|-----------------------------------------------------------|
|-----------------------------------------------------------|
|--3333-6666------------------------------------------------|
|--3333-6666-44444444--x4-----------------------------------|
|--1111-4444-44444444---------------------------------------|
|------------22222222---------------------------------------|
**** **** ********
Verse 3:
|-----------------------------------------------------------|
|-----------------------------------------------------------|
|--3333-6666---------------3333-6666------------------------|
|--3333-6666-44444444--x3--3333-6666-444444-4~--------------|
|--1111-4444-44444444------1111-4444-444444-4~--------------|
|------------22222222----------------222222-2~--------------|
**** **** ******** **** **** ******
Solo 2 (guitar 1):
|--986-89864-8986-898666------986-89864-8986-89864----------|
|-------------------------x1------------------------x3------|
|-----------------------------------------------------------|
|-----------------------------------------------------------|
|-----------------------------------------------------------|
|-----------------------------------------------------------|
guitar 2 plays Chorus at same time as Solo 2
Outro (guitar 1):
|----------998888998899--------------99-8-9-8-9-8~~---------|
|--6h7-6h7---------------x3--6h7-6h7------------------------|
|-----------------------------------------------------------|
|-----------------------------------------------------------|
|-----------------------------------------------------------|
|-----------------------------------------------------------|
Outro (guitar 2):
|-----------------------------------------------------------|
|-----------------------------------------------------------|
|--3333-6666---------------3~-------------------------------|
|--3333-6666-44444444--x4--3~-------------------------------|
|--1111-4444-44444444------1~-------------------------------|
|------------22222222---------------------------------------|
this tab should be 99% correct. if you have any questions, comments, or corrections,
my email address is [email protected]




Ваше мнение



Капча