Here’s a song off “Wrap Me Up In Plastic”. Either in drop D or standard tuning.
For comments or questions E-mail me or AIM me at [email protected]
Intro:
|----------------------------------------------
|----------------------------------------------
|----------------------------------------------
|-3-3---7-7---6-6-----3-3---7-7---6-6---8-8----
|-3-3---7-7---6-6-----3-3---7-7---6-6---8-8----
|-1-1---5-5---4-4-----1-1---5-5---4-4---6-6----
Verse
|-----------------------------------------------------
|-----------------------------------------------------
|-----------------------------------------------------
|-3-3---7-7---6-6------------3-3---7-7---6-6---8-8----
|-3-3---7-7---6-6------------3-3---7-7---6-6---8-8----
|-1-1---5-5---4-4------------1-1---5-5---4-4---6-6----
(Palm Mute)
Yesterday I went insane
Oh My God I forgot my name
Nervous bitch (End Palm Mute) that’s all I am
Screen my calls Because I can
Chorus
(no guitar)
You pick me up and we spun round and around like before
(guitar)_____
|-------------------
|-------------------
|----12-------------
|-10---10-----------
|----------10-------
|-------------------
(no guitar again)
I lost me patience but I found it on the floor
(guitar again)
|--------------------------
|--------------------------
|--------------------------
|-10---5-5-5-5---7---3-3-5-
|-10---5-5-5-5---7---3-3-5-
|-8 ---3-3-3-3---5---1-1-3—
I’m tryin to be someone else today, oh
I’m foolin everyone by bein this way, oh
Verse 2 (same as first verse)
All choked up, because you’re here
Words like glue, stuck in my ears
Chorus
Bridge:
|-------------5-10-
|-10-7-3-2---------
|------------------
|------------------
|------------------
|------------------
Hey girl, don’t wait up
Don’t wake up Im not for sale
Hey girl don’t wake up, don’t wake up….
Chorus:
|--------------------------
|--------------------------
|--------------------------
|-10---5-5-5-5---7---3-3-5-
|-10---5-5-5-5---7---3-3-5-
|-8 --3-3-3-3---5---1-1-3—
I’m tryin to be someone else today, oh
I’m foolin everyone by being this way, oh
|-10101010999988887777---
|------------------------
|------------------------
|------------------------
|------------------------
|------------------------
I’m tryin to be someone else today, oh
|-1010101099998~~~(let ring)----
|-------------------------------
|-------------------------------
|-------------------------------
|-------------------------------
|-------------------------------
I’m foolin everyone by being this way, oh
End On
|------------------------------------
|------------------------------------
|------------------------------------
|--5-5-------------------------------
|--3-3---3-3-------------------------
|--------1-1-------------------------
And That's the whole thing!




Ваше мнение



Капча