Title: I changed my name
Artist: Sugarcult
Tabbed by: Mikhail Punjani ([email protected])
Tuning: Standard (E A D G B E)
well once again here's an almost 99% correct version of i changed my name. There are only
one or two notes missing throughout this song, as they weren't clear due to the backround
noise.. well anyway.. have fun!
Intro & Verse:
let this note ring
E|--------------------------------------------------------------||
B|-----3-------3----------------------------------3/5-----------||
G|---2---2---2---2----------------------------------------------||
D|-0----------------(Repeat 3x)-------2p0------4----------------||
A|---------1-----------------------4-------5--------------------||
E|--------------------------------------------------------------||
Play this before starting the chorus
E|-------||
B|-------||
G|-------||
D|--9----|| 8x
A|--9----||
E|--7----||
Chorus:
E|---------------------|| E|-----------------||
B|---------------------|| B|-----------------||
G|---------------------|| G|-----------------||
D|--5----7----9--------|| 3x Then D|---5----7--------|| 8x each
A|--5----7----9--------|| A|---5----7--------||
E|--3----5----7--------|| E|---3----5--------||
pm.....
The second chorus is similar, just extended the number of times you play the second bar
(the last two chords). Then move onto the bridge.
Bridge:
E|-----------||
B|-----------||
G|-----------||
D|--9--10----|| play 3x
A|--9--10----||
E|--7--8-----||
E|----------------||
B|----------------||
G|--9---7---------||
D|--9---7---9-----||
A|--7---5---9-----||
E|----------7-----||
E|-------||
B|-------||
G|-------||
D|--9----|| This part is once again just before the chorus (8x)
A|--9----||
E|--7----||
During the final part of the song, he plays faded riffs:
E|------0---------||
B|--3------3---3--||
G|----2------2----||
D|----------------||
A|----------------||
E|----------------||
E|-----------------||
B|-5p3h5p3h5p3h5p3-||
G|-----------------||
D|-----------------||
A|-----------------||
E|-----------------||
E|------0---------||
B|--3------3------||
G|----3------3----||
D|----------------||
A|----------------||
E|----------------||

If you have any questions or comments, e-mail me at [email protected]




Ваше мнение



Капча