-------------------------------------------------------------------------------
Hate Every Beautiful Day- Sugarcult
-------------------------------------------------------------------------------
Tabbed by: Julie
Email: [email protected]
Normal tuning
Intro:
Guitar 1
e|----4-2----4-2----4-2------------| |---4-2---4-2---4-2---------| Let
B|--0------0------0------0--4p2h4--| |-0-----0-----0------0/4----| ring
G|---------------------------------|x3 |---------------------------|
D|---------------------------------| |-----4th-------------------|
A|---------------------------------| |------time-----------------|
E|---------------------------------| |---------------------------|
Guitar 2
e|------------------------------|
B|------------------------------|
G|--------------44------66-----|x4
D|66-----22-----44------66-----|
A|66-----22-----22------44-----|
E|44-----00---------------------|
In the first 4 measures of the verse, you can mess around with this note:
e|---|
B|-4-|
G|---|
D|---|
A|---|
E|---|
Listen to the recording to determine what to do with it.
Verse:
e|------------------------------|
B|------------------------------|
G|--------------44------66-----|x2
D|66-----22-----44------66-----|
A|66-----22-----22------44-----|
E|44-----00---------------------|
Bridge:
e|----------------------|
B|----------------------|
G|----------4444-6666---|x2
D|6666-2222-4444-6666---|
A|6666-2222-2222-4444---|
E|4444-0000-------------|
[Palm Muted.........]
Chorus:
e|--------------------------------------| |-------|
B|--------------------------------------| |-4--4--|
G|------------------4-4-4-44-6-6-6-66---|x3 |-4--3--|
D|6-6-6-66-2-2-2-22-4-4-4-44-6-6-6-66---| |-------|
A|6-6-6-66-2-2-2-22-2-2-2-22-4-4-4-44---| |-------|
E|4-4-4-44-0-0-0-00---------------------| |-------|
Solo:
e|-----------------------------------------------------------|
B|-----------------------------------------------------------|
G|---6p4---6----------------------6p4--6----------4--6--4----|
D|------6p4----6-4--6--4--1--4---4---6----6-4--6-----------6-|
A|-----------------------------------------------------------|
E|-----------------------------------------------------------|
e|---------------------------------| |----|
B|---------------------------------| |----| Second time
G|-8-8-8-8-4-4-4-4-3-3-3-3-1-1-1-1-|x2 |-1--| Let ring
D|---------------------------------| |----|
A|---------------------------------| |----|
E|---------------------------------| |----|
For the end, just play the same 4 chords you've been playing the entire song.
| / slide up
| slide down
| h hammer-on
| p pull-off
| . palm muted
===============================================================================




Ваше мнение



Капча