e--0 16X's----0000----0000----0000--------------
b-----------------------------------------------
g---------------------------------7-77----------
d---------7-77----7-77----7-77----7-77-5-57-7-77 listen to the song
a---------7-77----7-77----7-77----5-55-5-55-7-77 to see how many
E---------5-55----5-55----5-55---------3-33-5-55 times
* * * * * *

e-----------------------------------------------
b-----------------------------------------------
g---------------------------------7-77----------
d---------7-77----7-77----7-77----7-77-5-57-7-77
a---------7-77----7-77----7-77----5-55-5-55-7-77
E---------5-55----5-55----5-55---------3-33-5-55
* * * * * *
then play these chords for the chorus but liste to the album to see
how many times
e-------------
b-------------
g-------7-----
d-7-----7----5
a-7-----5----5
E-5-and--and-3 and you're set for this song except for the solo which
i'm to lazy to tab out but i fany figures it out e-mail me
at sk8er [email protected]




Ваше мнение



Капча