its exactly right.

INTRO:

e|---------------------------------------|
B|---------------------------------------|
G|---------------------------------------|
D|---8-8-8----1-1-1----3-3-3----4-4-4----|
A|---8-8-8----1-1-1----3-3-3----4-4-4----|
D|---8-8-8----1-1-1----3-3-3----4-4-4----|

e|-----------------|---------------------|
B|-----------------|---------------------|
G|-----------------|---------------------|
D|---3-3-3----1-1--|--8-8-8----1-1-1-----|
A|---3-3-3----1-1--|--8-8-8----1-1-1-----|
D|---3-3-3----1-1--|--8-8-8----1-1-1-----|

e|---------------------------------------|
B|---------------------------------------|
G|---------------------------------------|
D|---3-3-3----6-6-6---4----3-------------|
A|---3-3-3----6-6-6---4----3-------------|
D|---3-3-3----6-6-6---4----3-------------|




Ваше мнение



Капча