Tuning Eb
|
Key
[ (#) optional
Intro and verse 1:
1 & 2 & 3 & 4 &|1 & 2 & 3 & 4 &|1 & 2 & 3 &|1 & 2 & 3 &
eb||---------------|-----------------|------------|-----------|
Bb||--------3------|-------(0)-------|-------(0)--|-----------|
Gb||--------4------|--------4--------|--------4---|--------4--|
Db||----4-------4--|----4-------4----|----4-------|----4------|
Ab||2--------------|-----------------|------------|-----------|
Eb||---------------|3----------------|0-----------|2-3--------|

1 & 2 & 3 & 4 &|1 & 2 & 3 & 4 &|1 & 2 & 3 & 4 &|
eb||---------------|-----------------|0~~~~~~~~~~~~~~|
Bb||--------3------|-------(0)-------|0~~~~~~~~~~~~~~|
Gb||--------4------|--------4--------|0~~~~~~~~~~~~~~|
Db||----4-------4--|----4------------|2~~~~~~~~~~~~~~|
Ab||0-2------------|-----------------|2~~~~~~~~~~~~~~|
Eb||---------------|3----------------|0~~~~~~~~~~~~~~|

Repeat for verse!

Enjoy




Ваше мнение



Капча