My first tab, and I'm 99.9% sure this is right.
e---------------------------------------------------------------
B---------------------------------------------------------------
G-15-11-15-11-16--11-15-18--15-11-15-11-10-11-13-11-10-11-16b---
D---------------------------------------------------------------
A---------------------------------------------------------------
E---------------------------------------------------------------
----------------------------------16-1411----------------------
-16141614161416141614161416141614----------14h16-19-18-16-14-11-
----------------------------------------------------------------
----------------------------------------------------------------
----------------------------------------------------------------
----------------------------------------------------------------
------------------------------------------------------
-16-14------------------------------------------------
-------16-16-15-11----13-14-13-13-11-9-11-------------
-------------------13---------------------13*let ring-
------------------------------------------------------
------------------------------------------------------
[email protected]
by Nick Z.




Ваше мнение



Капча