i think most of it is right..
standard tuning
------------------------------------------------------------
------------------------------------------------------------
-16-12-16-12-17--12-16-19--16-12-16-12-11-12-14-12-11-12-17b
------------------------------------------------------------
------------------------------------------------------------
------------------------------------------------------------
----------------------------------17-1512-------------------
-17151715171517151715171517151715----------15h17-20-19-17-15-12
--------------------------------------------------------------
--------------------------------------------------------------
--------------------------------------------------------------
---------------------------------------------------------------
-----------------------------------------------------
-17-15-----------------------------------------17*let ring--
-------17-17-16-12----21~-16-17-17-16-14-14----------
-------------------14----------------------14--------
-----------------------------------------------------
-----------------------------------------------------
-Dawn
[email protected]





Ваше мнение



Капча