Song: Back To California
By: Sugarcult
Album: Palm Trees And Power Lines
tabbed by: pwrchrdprincess
Intro / Verse / Chorus / Bridge 1:
e|-------------------------------------------------------------|
B|-------------------------------------------------------------|
G|-----------66666666-7777-6666-9999-7777----------------------|
D|--77777777-66666666-7777-6666-9999-7777----------------------|
A|--77777777-44444444-5555-4444-7777-5555----------------------|
E|--55555555---------------------------------------------------|
Bridge 2:
e|---05--05--05--05--02--02--02--02----------------------------|
B|--2---2---2---2---0---0---0---0------------------------------|
G|-------------------------------------------------------------|
D|-------------------------------------------------------------|
A|-------------------------------------------------------------|
E|-------------------------------------------------------------|
End Chorus:
e|-------------------------------------------------|
B|-------------------------------------------------|
G|-----------66666666-7777-9999-11111111-13131313--|
D|--77777777-66666666-7777-9999-11111111-13131313--|
A|--77777777-44444444-5555-7777-9-9-9-9--11111111--|
E|--55555555---------------------------------------|
Fill:
e|-----------------|
B|-----------------|
G|-----------------|
D|--77-77-77-77----|
A|--77-77-77-77----|
E|--55-55-55-55----|
** ** ** **
order:
Intro (x2)
Verse (x4)
Bridge 1 (x2) and Bridge 2 (x2) at same time
Verse (x4)
Chorus (x3)
End Chorus (x1)
Fill (x1)
Verse (x4)
Chorus (x3)
End Chorus (x3)
It's a little confusing but you'll catch on. This tab is almost 100% correct.
If you have any questions, comments, or corrections email me at [email protected]




Ваше мнение



Капча