title: speed home california
artist:sugar ray
album:floored
this album is awsome, then they went wussy, damn
hope this is good, its the first song ive tabbed out
intro
G----------------------------------------------------------------
D----------------------------------------------------------------
A----------------------------------------------------------------
E----5---5---5---5-5-5-------------------------------------------
verse tail
G----------------------------------/-----------------------------
D----------------------------------/-----------------------------
A-------------------------44444444-/-----------------------------
E---44444444---22222222------------/----5--7--5--3--5--7--5--7---
chorus
G----------------------------------------------------------------
D----------------------------------------------------------------
A---------5-0----------------------------------------------------
E--4-4-4-------5-------------------------------------------------
part right before guitar solo
G----------------------------------------------------------------
D----------------------------------------------------------------
A----------------------------------------------------------------
E--0--3--5------0--3--5------------------------------------------
slow part
G----------------------------------------------------------------
D----------------------------------------------------------------
A--------------------4--------------------------------------------
E------4------2--------------4-------------------------------------





Ваше мнение



Капча