t. See http://www.olga.net/faq/ for more information. #
From: Josh Tavares
Subject: s/sugar_ray/someday.tab
Date: Tue, 06 Jul 1999 15:33:50 PDT
Someday by Sugar Ray
From the album 14:59
Transcribed by Josh Tavares ([email protected])
Tune guitar 1/2 step down (Eb,Ab,Db,Gb,Bb,Eb)
Hello everybody. I heard this song live on tv and loved it. E-mail any
corrections and comments to [email protected] All e-mails will be
answered. I will also accept requests.
Intro
(play twice)
Eb-----------------------------------3---1--0h1h0---------------------|
Bb---1-------1--------1-----------3----------------3---1--------------|
Gb------2-------2--------------3--------------------------------------|
Db---------3-------3------3/5-----------------------------------------|
Ab--------------------------------------------------------------------|
Eb--------------------------------------------------------------------|

Eb--0---------------------------------3---1--0h1h0--------------------
Bb-----1------1--------1-----------3----------------3---1-------------
Gb--------2------2--------------3-------------------------------------
Db------------------3------3/5---------------------------------------
Ab--------------------------------------------------------------------
Eb--------------------------------------------------------------------

Verse
Someday....
Eb------------------------------------------------|
Bb------------------------------------------------|
Gb------------------------------------------------| (play it three times)
Db---------2//4--2------4-4--2--------------------|
Ab---------3//5--3--2---5-5--3--------------------|
Eb------------------3-----------1-----------------|
Eb-----------------------------------3---1--0h1h0--------------|
Bb---1-------1--------1-----------3----------------3---1-------|
Gb------2-------2--------------3-------------------------------|
Db---------3-------3------3/5----------------------------------|
Ab-------------------------------------------------------------|
Eb-------------------------------------------------------------|
One way....
Eb------0-0-0-0-0-0-0-------0-0-0-0-0-0-0---0-------------------|
Bb------5-5-5-5-5-5-5---6---5-5-5-5-5-5-5---3-------------------|
Gb------5-5-5-5-5-5-5---0---5-5-5-5-5-5-5---0-------------------|(play twice)
Db------0-0-0-0-0-0-0-------0-0-0-0-0-0-0-----------------------|
Ab--------------------------------------------------------------|
Eb--------------------------------------------------------------|

Fill 1 (second guitar at the end)
Eb----------------3---1--0h1h0----------------------|
Bb-------------3-----------------3---1--------------|
Gb----------3---------------------------------------|
Db-----3/5------------------------------------------|
Ab--------------------------------------------------|
Eb--------------------------------------------------|

Chorus
Just .....
Eb-------1---------------------0---------------------|
Bb-------1---------------------1---------------------|
Gb-------3---------------------2---------------------|
Db-------3---------------------2---------------------|
Ab-------1---------------------0---------------------|
Eb---------------------------------------------------|
Eb-------1---------------------0---------------------|
Bb-------1---------------------1---------------------|
Gb-------3---------------------2---------------------|
Db-------3---------------------2---------------------|
Ab-------1---------------------0---------------------|
Eb---------------------------------------------------|
Eb-------1---------------------0---------------------|
Bb-------1---------------------1---------------------|
Gb-------3---------------------2---------------------|
Db-------3---------------------2---------------------|
Ab-------1---------------------0---------------------|
Eb---------------------------------------------------|
Eb----3-----------------------------------------------|
Bb----3-----------------------------------------------|
Gb----0-----------------------------------------------|
Db----0--------2--2-----------------------------------|
Ab----2--------3--3-----------------------------------|
Eb----3-----------------------------------------------|

Verse
Some say....
Eb------------------------------------------------|
Bb------------------------------------------------|
Gb------------------------------------------------| (play it three times)
Db---------2//4--2------4-4--2--------------------|
Ab---------3//5--3--2---5-5--3--------------------|
Eb------------------3-----------1-----------------|
Eb-----------------------------------3---1--0h1h0--------------|
Bb---1-------1--------1-----------3----------------3---1-------|
Gb------2-------2--------------3-------------------------------|
Db---------3-------3------3/5----------------------------------|
Ab-------------------------------------------------------------|
Eb-------------------------------------------------------------|
Some way....
Eb------0-0-0-0-0-0-0-------0-0-0-0-0-0-0---0-------------------|
Bb------5-5-5-5-5-5-5---6---5-5-5-5-5-5-5---3-------------------|
Gb------5-5-5-5-5-5-5---0---5-5-5-5-5-5-5---0-------------------|
Db------0-0-0-0-0-0-0-------0-0-0-0-0-0-0-----------------------|
Ab--------------------------------------------------------------|
Eb--------------------------------------------------------------|
Eb------0-0-0-0-0-0-0-------0-0-0-0-0-0-0-----------------------|
Bb------5-5-5-5-5-5-5---6---5-5-5-5-5-5-5---6-------------------|
Gb------5-5-5-5-5-5-5---0---5-5-5-5-5-5-5---0-------------------|
Db------0-0-0-0-0-0-0-------0-0-0-0-0-0-0-----------------------|
Ab--------------------------------------------------------------|
Eb--------------------------------------------------------------|
Eb------0-0-0-0-0-0-0-------0-0-0-0-0-0-0---0-------------------|
Bb------5-5-5-5-5-5-5---6---5-5-5-5-5-5-5---3-------------------|
Gb------5-5-5-5-5-5-5---0---5-5-5-5-5-5-5---0-------------------|
Db------0-0-0-0-0-0-0-------0-0-0-0-0-0-0-----------------------|
Ab--------------------------------------------------------------|
Eb--------------------------------------------------------------|
Fill 1 (second guitar at the end)
Eb----------------3---1--0h1h0----------------------|
Bb-------------3-----------------3---1--------------|
Gb----------3---------------------------------------|
Db-----3/5------------------------------------------|
Ab--------------------------------------------------|
Eb--------------------------------------------------|

Chorus

Bridge
(Bass playing)

Eb----------------3---1--0h1h0----------------------|
Bb-------------3-----------------3---1--------------|
Gb----------3---------------------------------------|
Db-----3/5------------------------------------------|
Ab--------------------------------------------------|
Eb--------------------------------------------------|
Eb--0--------------------------------0-----------------------6/8/6-------|
Bb-----1---------------------3//1-------1--------------------------------|
Gb--------2--------------3---2//0----------2-------------3---------------|
Db-----------3------3/5------------------------3----3/5------------------|
Ab-----------------------------------------------------------------------|
Eb-----------------------------------------------------------------------|
Eb-----------------------------------------------------------------|
Bb--5h6h5h6---------------------------------------------1----------|
Gb----------------2-3-2--------2-3-2------2-3-2-3-----2---3--------| (play
it twice)
Db-----------------------------------------------------------------|
Ab-----------------------------------------------------------------|
Eb-----------------------------------------------------------------|

Eb-------------------------------------------------------------------3--1--0h1h0
Bb---1---------1--------------3//1----1-------1--------1----------3-------------
Gb------2-----------------3---2//0-------2-------2-------------3----------------
Db---------3--------3/5---------------------3-------3-----3/5-------------------
Ab------------------------------------------------------------------------------
Eb------------------------------------------------------------------------------
Eb----------|
Bb --3--1---|
Eb-----------------------------------3---1--0h1h0--------------|
Bb---1-------1--------1-----------3----------------3---1-------|
Gb------2-------2--------------3-------------------------------|
Db---------3-------3------3/5----------------------------------|
Ab-------------------------------------------------------------|
Eb-------------------------------------------------------------|
Eb-----------------------------------3---1--0h1h0--------------|
Bb---1-------1--------1-----------3----------------3---1-------|
Gb------2-------2--------------3-------------------------------|
Db---------3-------3------3/5----------------------------------|
Ab-------------------------------------------------------------|
Eb-------------------------------------------------------------|
Someday.....
Eb-----------------------------------3---1--0h1h0--------------|
Bb---1-------1--------1-----------3----------------3---1-------|
Gb------2-------2--------------3-------------------------------| (eight times)
Db---------3-------3------3/5----------------------------------|
Ab-------------------------------------------------------------|
Eb-------------------------------------------------------------|
And fade away....
Eb------0-0-0-0-0-0-0-------0-0-0-0-0-0-0---0-------------------|
Bb------5-5-5-5-5-5-5---6---5-5-5-5-5-5-5---3-------------------|
Gb------5-5-5-5-5-5-5---0---5-5-5-5-5-5-5---0-------------------| (four times)
Db------0-0-0-0-0-0-0-------0-0-0-0-0-0-0-----------------------|
Ab--------------------------------------------------------------|
Eb--------------------------------------------------------------|

Notation:
h = hammer on
/ = slide





Ваше мнение



Капча