Someday
Sugar Ray 14:59
tabbed by Mike of ORHS
This is a truly awesome song. I can guarantee you that this is 100% correct. Here it is
Intro Acoustic
___E_____________F#m
e|---------------------2-0------------------------
B|-0-----0-----0-----2-----4/5-4-2-0--------------
G|---1-----1-------2------------------------------
D|-----2-----2---4--------------------------------
A|------------------------------------------------
E|------------------------------------------------
Riff A Clean Elec.
___Emaj7_____F#m_________Emaj7___F#m
e|-----------------------------------75----------
B|-4----------------75--4------------------------
G|---4---------2/6--64----4-------2--------------
D|-----6-----4---------------6---4----------------
A|------------------------------------------------
E|------------------------------------------------
Click here for sound file I created for you to listen to for the beat of the chords.
Riff B
__E______________________________F#m11
e|------------------------------------------------
B|-4-4-4-4-4-4-4----4-4-4-4-4-4--5---5-5----------
G|-4-4-4-4-4-4-4----4-4-4-4-4-4--6---6-6----------
D|------------------------------------------------
A|------------------------------------------------
E|------------------------------------------------
__E______________________________F#m11
e|------------------------------------------------
B|-4-4-4-4-4-4-4----4-4-4-4-4-4--2----------------
G|-4-4-4-4-4-4-4----4-4-4-4-4-4--2----------------
D|------------------------------------------------
A|------------------------------------------------
E|------------------------------------------------
Riff C
e|------------------------------------------------
B|-0-----0-----0----------------------------------
G|---1-----1--------------------------------------
D|-----2-----2------------------------------------
A|------------------------------------------------
E|------------------------------------------------
Riff D
e|---------------------2-0------------------------
B|-------------------2-----4/5-4-2-0--------------
G|-----------------2------------------------------
D|---------------4--------------------------------
A|------------------------------------------------
E|------------------------------------------------
CHORDS

E 033200
F#m 244222
Emaj7 x4311x
F#m11 xx2200
A 577455
G#m 466444
B x2444x
Entire song w/lyrics
Intro: Intro acoustic chords and solo 4x
Add Riff A in after 2x and play it 2x w/chords
E________F#m______________Emaj7_________F#m_____
Someday, when my life has passed me by, I'll lay
___________E___________________F#m_______________E
around and wonder why you were always there for me.
F#m_________
E_______F#m_______________E__________F#m11____
One way, in the eyes of a passer by, I'll look
_____________E________F#m11________E________F#m11
around for another try and fade away.
F#m11______E______________________
and fade away
Riff C with chords and Riff B all at once
A____________________________G#m___________
Just close you eyes and I'll take you there
A______________________G#m_______
This place is warm without a care
A________________________G#m____________F#m________
We'll take a swim in the deep blue sea I'll go to
_________________________Riff D
leave as you reach for me.
Riff A and chords
Someone said you tried too lone Someone said we got it all wrong. Some said we tried too long.
Eberythings's where I belong. So far, and so long. So far away. So far, so wrong. So far away,
away, away.

Now the song repeats one more time.
Finally, I'm done!!!
email me





Ваше мнение



Капча