Band: Sugar Ray
Album: Floored
Song: R.P.M.
This tab is surely 100% accurate
Tuning: all guitars, tune down 1/2 step, Dropped D tuning
/ slide up
slide down

Intro
Bass & drums use tremolo bar racecar samples grad slide
eb-----------------|-12-(12)----(12)-|-----------------|-----------------|
Bb-----------------|-----------------|-----------------|-----------------|
Gb-----------------|-----------------|-----------------|---1---/--/------|
Db-----------------|-----------------|-----------------|---1--/--/-------|
Ab-----------------|-----------------|-----------------|-----------------|
Db-----------------|-----------------|-----------------|-----------------|
eb-----------------|-----------------|-----------------|-----------------|
Bb-----------------|-----------------|-----------------|-----------------|
Gb-----------------|---1---/--/------|-----------------|---1---/--/------|
Db-----------------|---1--/--/-------|-----------------|---1--/--/-------|
Ab-----------------|-----------------|-----------------|-----------------|
Db-----------------|-----------------|-----------------|-----------------|
eb-----------------|-----------------|
Bb-----------------|-----------------|
Gb-----------------|---1---/--/------|
Db-----------------|---1--/--/-------|
Ab-----------------|-----------------|
Db-----------------|-----------------|
Riff1 verse
eb----------------------|----------------------|
Bb----------------------|----------------------|
Gb----------------------|----------------------|
Db----------------------|----------------------|
Ab--0--0----1-1-0--0----|--0--0----1-1-0--0----|
Db--0--0----1-1-0--0----|--0--0----1-1-0--0----|
Riff2 prechorus
eb----------------------|----------------------|----------------------|----------------------|
Nb----------------------|----------------------|----------------------|----------------------|
Gb----------------------|----------------------|----------------------|--------------4-/-6---|
Db----------------------|----------------------|----------------------|--------------5-/-7---|
Ab--5/65--3-5-5-3------|--5/65--3-5-5-3------|--5/65--3-5-5-3------|--5/65--3-5--5-/-7---|
Db--3/43--1-3-3-1------|--3/43--1-3-3-1------|--3/43--1-3-3-1------|--3/43--1-3--3-/-5---|
Riff3 chorus
eb----------------------|----------------------|----------------------|----------------------|
Bb----------------------|----------------------|----------------------|----------------------|
Gb--------8-8-----------|--------8-8-----------|--------8-8-----------|--------8-8-----------|
Db--------8-8-----------|--------8-8-----------|--------8-8-----------|--------8-8-----------|
Ab--0-0-0-6-6-3-3-4-----|--0-0-0-6-6-3-3-4-----|--0-0-0-6-6-3-3-4-----|--0-0-0-6-6-3-3-4-----|
Db--0-0-0-----1-1-2-----|--0-0-0-----1-1-2-----|--0-0-0-----1-1-2-----|--0-0-0-----1-1-2-----|
Interlude (while DJ scratching)
eb----------------------|----------------------|
Bb---------8----7-------|--11-----(8)------|
Gb---------8----7-------|--11-----(8)------|
Db---7-----7----7-------|----------------------|
Ab---6------------------|----------------------|
Db----------------------|----------------------|
|__repeat that 3x__| then





Ваше мнение



Капча