name: Geeky Randy
artist: Sugar Ray
SongTitle: Rivers
Tabs: Tabs transcribed by: Joseba ([email protected])
Lyrics transcribed by: Geeky Randy ([email protected])
TABLATURE:
Tune guitar 1/2 step down (Eb,Ab,Db,Gb,Bb,Eb)

Intro
Eb------------------------------------------------------|
Bb--------3------------3---------------------------3--0-|
Gb-----4-----4------0-----0--------5----------2h0-------|(play it 4
times)
Db--5------------4--------------5-----5----0------------|
Ab---------------------------3--------------------------|
Eb------------------------------------------------------|
Fill 1 (guitar at the back)
Eb---3-3--5--7--3--5--------------|
Bb---3-3--7--8--5--7--------------|
Gb--------------------------------| (play it twice)
Db--------------------------------|
Ab--------------------------------|
Eb--------------------------------|

Verse
Sheґs gone....
Eb------------------------------------------------------|
Bb--------3------------3---------------------------3--0-|
Gb-----4-----4------0-----0--------5----------2h0-------|(play it 4
times)
Db--5------------4--------------5-----5----0------------|
Ab---------------------------3--------------------------|
Eb------------------------------------------------------|

Chorus
When it goes away.....
Eb----------------------------------------------|
Bb----------------------------------------------|
Gb-----------------------5-5-5-5---7-7-7-7------| (play it 4 times)
Db---5-5-5-5---2-2-2-2---5-5-5-5---7-7-7-7------|
Ab---5-5-5-5---2-2-2-2---3-3-3-3---5-5-5-5------|
Eb---3-3-3-3---0-0-0-0--------------------------|

Eb------------------------------------------------------|
Bb--------3------------3---------------------------3--0-|
Gb-----4-----4------0-----0--------5----------2h0-------|(play it
twice)
Db--5------------4--------------5-----5----0------------|
Ab---------------------------3--------------------------|
Eb------------------------------------------------------|

Verse

Chorus

Bridge
running going.....
Eb-----------------------------------------------------------|
Bb-----------------------------------------------------------|
Gb---------------5--5--5--5----------------7--7--7--7--------|
Db--2--2--2--2---5--5--5--5---2--2--2--2---7--7--7--7--------|
Ab--2--2--2--2---3--3--3--3---2--2--2--2---5--5--5--5--------|
Eb--0--0--0--0----------------0--0--0--0---------------------|

Chorus

La,la,la,la......
Eb----------------------------------------------|
Bb----------------------------------------------|
Gb-----------------------5-5-5-5---7-7-7-7------| (play it 4 times)
Db---5-5-5-5---2-2-2-2---5-5-5-5---7-7-7-7------|
Ab---5-5-5-5---2-2-2-2---3-3-3-3---5-5-5-5------|
Eb---3-3-3-3---0-0-0-0--------------------------|
End
Eb------------------|
Bb------------------|
Gb------------------|
Db---5--------------|
Ab---5--------------|
Eb---3--------------|
Notation:
h = hammer on
LYRICS:
She's gone and I'm gonna find her
(It's been so long)
Yeah, I'm gonna find her
She's gone away
When it goes away
I'll dig a hole x4
Wasted, and I'm out of patience
(It's been so long)
Yeah, I'm out of patience
She's gone away
Pain goes away
I dig a hole x2
When it goes away
I'll dig a hole x2
Runnin', goin' out at night
Friends they push and pull you
Burn out group poor flowers
Spinning, falling outta time
When it goes away
I'll dig a hole x4
(La-la-la-la ooh)
I'll dig a hole
(La-la-la-la ooh)
When it goes away
(La-la-la-la ooh)
I dig a hole
(La-la-la-la ooh)
Pain goes away

© Geeky Randy (C.S.) - [email protected]





Ваше мнение



Капча