Hey this is Personal Space Invader by Sugar Ray. It is off the album
14:59. It is a great song, although not that well known. It is very
easy to play, hope you have fun!

Beginning (1x)

------------------------------------------------------------
------------------------------------------------------------
------------------------------------------------------------
------------------------------------------------------------
--------------11--------------11----5-5-5-5-----------------
---0-0-12-0-0------0-0-12-0-0---------------5-5-------------

Main Riff (play throughout the whole song except the opening
and the chorus)

------------------------------------------------------------
------------------------------------------------------------
------------------------------------------------------------
------------------------------------------------------------
--------------11---5-5-5-5----------------------------------
---0-0-12-0-0--------------5-5------------------------------

Chorus

------------------------------------------------------------
------------------------------------------------------------
------------------------------------------------------------
------------------------------------------------------------
---------------------5-5-5-5--------------------------------
---0-0-12-0-0-0-12-----------5-5----------------------------





Ваше мнение



Капча