SWEET
i know this song is perfect cuz i copeyed it out of the song
sheet
--------------------------------------------------------|
--------------------------------------------------------|
--------------------------------------------------------|
------------6--------------6----------------------------|
------7--------------7--------7-7-7-7-7-----------------|
--0-0---0-0------0-0---0-0--------------7---------------|
--------------------------------------------------------|
--------------------------------------------------------|
--------------------------------------------------------|
------------6--------------6----------------------------|
------7--------------7--------7-7-7-7-7-----------------|
--0-0---0-0------0-0---0-0--------------7---------------|
this is the whole
song and i am
looking 4 some
sweet bass tabs
so if any one
hase some please
put them in





Ваше мнение



Капча