Sugar Ray
Falls Apart
Standard Tuning (E A D G B E)
Intro ----- (drums enter 3rd time)
Gtr.1 w/dist (4 times)
||--------------------------||------------------------|------------------------|
||*------------------------*||------------------------|------------------------|
||--9--9-9-9-9--9--9-9-9-9--||-9--9-9-9-9--9--9-9-9-9-|-9--9-9-9-9--9--9-9-9-9-|
||--7-h9-9-9-9--7-h9-9-9-9--||-7-h9-9-9-9--7-h9-9-9-9-|-7-h9-9-9-9--7-h9-9-9-9-|
||*-7--7-7-7-7--7--7-7-7-7-*||-7--7-7-7-7--7--7-7-7-7-|-7--7-7-7-7--7--7-7-7-7-|
|| -------------------------||------------------------|------------------------|
Gtr.2 clean
P.M.--------| P.M.-------|~~~~~~|
||---------------------||------------------------|------------------------|
||*--------------------||------------------------|------------------------|
||---------------------||------------------------|------------------------|
||---------------------||------------------------|------------------------|
||*--------------------||--7--7----7---7/97-----|--7--7----7---7/97-----|
||---------------------||-------9----------------|-------9----------------|
|----------------------|-----------------------|----------------------|
|----------------------|--9--9-9-9-------------|----------------------|
|--9-9-9-9--9-9--9-9---|--9--9-9-9---9--9-9-9--|--9-9-9-9---9-9--9-0--|
|--9-9-9-9--9-9--9-9---|--9--9-9-9---9--9-9-9--|--9-9-9-9---9-9--9-0--|
|--7-7-7-7--7-7--7-7---|--7--7-7-7---7--7-7-7--|--7-7-7-7---7-7--7-0--|
|----------------------|-----------------------|--7-7-7-7---7-7--7-0--|
|Gtr.2 (clean) |
|----------------------|-----------------------|----------------------|
|----------------------|-----------------------|----------------------|
|----------------------|-----------------------|----------------------|
|----------------------|-----------------------|----------------------|
|--7--7---7--7/97-----|-X-7--7--7--76----6h7-|--7--7-----7--7/97---|
|-------9--------------|-----------------------|--------9-----------9-| (ring)
|-x-x--x-x--x-x-x--x-x-|--x-x-x-x--x-x--x--x-x-|--x-x-x-x--x--x-x-x-x-|-x---|
|-x-x--x-x--x-x-x--x-x-|--9-9-9-9--9-9--9--0-0-|--x-x-x-x--x--x-x-x-x-|-x---|
|-6-6--6-6--6-6-6--6-6-|--9-9-9-9--9-9--9--0-0-|--6-6-6-6--4--4-4-4-0-|-9---|
|-7-7--7-7--7-7-7--7-7-|--9-9-9-9--9-9--9--0-0-|--6-6-6-6--4--4-4-4-0-|-9---|
|-7-7--7-7--7-7-7--7-7-|--7-7-7-7--7-7--7--0-0-|--4-4-4-4--2--2-2-2-0-|-7---|
|-5-5--5-5--5-5-5--5-5-|--x-x-x-x--x-x--x--x-x-|--x-x-x-x--x--x-x-x-x-|-----|
| |Gtr. 2 (clean) |
|----------------------|-----------------------|----------------------|-----|
|----------------------|-----------------------|----------------------|-----|
|----------------------|-----------------------|----------------------|-----|
|----------------------|-----------------------|----------------------|-----|
|--7--7----7-7/97-----|--7--7---7-7/97-------|--7--7--7--76--6h7---|-----|
|-------9-----------9--|-------9----------9----|----------------------|-----|
1st and 2nd Verses
She falls apart by herself No one's there to talk or understand Feels the sting dries her
eyes finds herself opens a door and sighs 2. You walk along by yourself There's no sound
nothin's changing Theyve Gone away left you there Emptiness is nothin' you can share
gtr.1(plays first time only on each verse)
||-----------------|------------------|-----------------|-----------------||
||*----0---2-0-----|------------------|-------0---2-0---|-------0--------*||
||---1-------------|-------2--1-------|-----1-----------|-2h1-2----2-1----||
||-2-----------2---|---2-4------2-----|-2-2-------------|--------------2--||
||*----------------|-0------------0---|-----------------|----------------*||
||-----------------|------------------|-----------------|-----------------||
(1)People see right through you Everyone who knew you well
Falls apart might as well
(2)All those words that hurt you More than you will let it show comes apart by yourself
||-----------------|-----------------||-----------------|-----------------||
||*9-9-9-9-9-9-9-9-|----------------*||-----------------|-----------------||
||-9-9-9-9-9-9-9-9-|-9-9-9-9-9-9-9-9-||-9-9-9-9-9-9-9-9-|-9-9-9-9-9-9-9-9-||
||-9-9-9-9-9-9-9-9-|-9-9-9-9-9-9-9-9-||-9-9-9-9-9-9-9-9-|-9-9-9-9-9-9-9-9-||
||*7-7-7-7-7-7-7-7-|-7-7-7-7-7-7-7-7*||-7-7-7-7-7-7-7-7-|-7-7-7-7-7-7-7-7-||
||-----------------|-7-7-7-7-7-7-7-7-||-----------------|-7-7-7-7-7-7-7-7-||
1st and 2nd Chorus
Day is long and nothing is wasted Runaway runaway
All is well and nothing is wasted (runaway runaway)
||-----------------|------------------||-----------------|-x-x-x-x-x-x-x-x-||
||-----------------|------------------||-9-9-9-9-9-9-9-9-|-5-5-5-5-5-5-5-5-||
||-9-9-9-99-9-9-9--|-9-9-9-9-9-9------||-9-9-9-9-9-9-9-9-|-6-6-6-6-6-6-6-6-||
||-9-9-9-99-9-9-9--|-9-9-9-9-9-9------||-9-9-9-9-9-9-9-9-|-7-7-7-7-7-7-7-7-||
||-7-7-7-77-7-7-7--|-7-7-7-7-7-7------||-7-7-7-7-7-7-7-7-|-7-7-7-7-7-7-7-7-||
||-----------------|-7-7-7-7----------||-7-7-7-7-7-7-7-7-|-5-5-5-5-5-5-5-5-||
gtr. 2
P.M.------|
||-----------------|------------------||-----------------|-----------------||
||-----------------|------------------||-----------------|-----------------||
||--1-2-4-1-2-4----|------------------||-----------------|-----------------||
||-----------------|------------------||-----------------|-----------------||
||-----------------|-------7-7-7-76--||-7--7---7-7/97--|-7--7---7-7/97--||
||-----------------|------------------||------9----------|------9----------||
Hold on to you but you're going away Runaway Runaway (Wanna) (Wanna) (runaway) (runaway)
||-----------------|------------------|------------------|-5-5-5-5-5-5-5-5-||
||-9-9-9-9-9-9-9-0-|------------------|-9-9-9-9-9-9-9-9--|-5-5-5-5-5-5-5-5-||
||-9-9-9-9-9-9-9-0-|-6-6-6-6-4-4-4-0--|-9-9-9-9-9-9-9-9--|-6-6-6-6-6-6-6-6-||
||-9-9-9-9-9-9-9-0-|-6-6-6-6-4-4-4-0--|-9-9-9-9-9-9-9-9--|-7-7-7-7-7-7-7-7-||
||-7-7-7-7-7-7-7-0-|-4-4-4-4-2-2-2-0--|-7-7-7-7-7-7-7-7--|-7-7-7-7-7-7-7-7-||
||-----------------|------------------|------------------|-5-5-5-5-5-5-5-5-||
gtr. 2
P.M.------| |
||-----------------|------------------|------------------|-----------------||
||-----------------|------------------|------------------|-----------------||
||-----------------|------------------|------------------|-----------------||
||-----------------|------------------|------------------|-----------------||
||-7--7---7-7/97--|-------7-7-7-76--|--7--7---7-7/97--|-7--7---7-7/97--||
||------9----------|------------------|-------9----------|------9----------||
old you tommorow but your leaving today (wanna) (wannna) Now go back and do Verse 2 (above)
||---------------|---------------|------------------|----------------|-----||
||---------------|---------------|------------------|----------------|-----||
||--9--9--9--9---|--9--9--9--9---|------------------|----------------|--9--||
||--9--9--9--9---|--9--9--9--9---|---6--6--6--6-----|---4--4--4--0---|--9--||
||--9--9--9--9---|--9--9--9--9---|---6--6--6--6-----|---4--4--4--0---|--9--||
||--7--7--7--7---|--7--7--7--7---|---4--4--4--4-----|---2--2--2--0---|--7--||
2nd time you play this you skip the last part and then play the part below. leaving today
Sometimes I feel around it scares me some I cant be down all this time on my own
gtr.1
||-----------------|------------------|------------------|-----------------||
||-----------------|------------------|------------------|-----------------||
||-6-6-6-6-4-4-4-4-|-5-5-5-5-5--5-5-5-|-6-6-6-6-6--6-6-6-|-5-5-5-5-5-5-5-5-||
||-6-6-6-6-4-4-4-4-|-6-6-6-6-6--6-6-6-|-7-7-7-7-7--7-7-7-|-6-6-6-6-6-6-6-6-||
||-4-4-4-4-2-2-2-2-|-6-6-6-6-6--6-6-6-|-7-7-7-7-7--7-7-7-|-6-6-6-6-6-6-6-6-||
||-----------------|-4-4-4-4-4--4-4-4-|-5-5-5-5-5--5-5-5-|-4-4-4-4-4-4-4-4-||
gtr. 2
||-----------------|------------------|------------------|-----------------||
||-----------------|------------------|------------------|-----------------||
||-----------------|------------------|------------------|-----------------||
||-----------------|-----------6------|-----------7------|-----------6-----||
||-----------------|-------4/6----6---|-------6/7-----7--|-------4/6----6--||
||-----------------|------------------|------------------|-----------------||
gtr.1
|---------x-x-x-x-|-----------------|-----------------|---------------------|
|---------x-x-x-x-|-----------------|-----------------|---------------------|
|-6-6-6-6-8-8-8-8-|-5-5-5-5-5-5-5-5-|-6-6-6-6-6-6-6-6-|-5-5-5-5-6-6-6-6-8-80|
|-7-7-7-7-9-9-9-9-|-6-6-6-6-6-6-6-6-|-7-7-7-7-7-7-7-7-|-6-6-6-6-7-7-7-7-9-90|
|-7-7-7-7-9-9-9-9-|-6-6-6-6-6-6-6-6-|-7-7-7-7-7-7-7-7-|-6-6-6-6-7-7-7-7-9-90|
|-5-5-5-5-7-7-7-7-|-4-4-4-4-4-4-4-4-|-5-5-5-5-5-5-5-5-|-4-4-4-4-5-5-5-5-7-70|
gtr. 2
|-----------------|-----------------|-----------------|---4-4-4--5---7------|
|-----------------|-----------------|-----------------|---4-4-4---5----7----|
|----6-6-6----8---|-----------------|--------6-6------|---5-5-5---6----8----|
|------7-7------9-|-----------------|------7---7------|---------------------|
|-6/7--7-7-7/9--9-|-----------------|--6/7-----7------|---------------------|
|-----------------|-----------------|-----------------|---------------------|
Breakdown --------- Yeah
|--------|--------|--------|--------|--------|--------|--------|-----------|
|-9------|--------|--------|--------|--------|--------|--------|(5)--------|
|-9------|--------|--------|--------|(9)-----|(6)-----|(9)-----|(6)--------|
|-9------|--------|--------|--------|(9)-----|(7)-----|(9)-----|(6)--------|
|-7------|--------|--------|--------|(7)-----|(7)-----|(7)-----|(4)--------|
|-7------|--------|--------|--------|--------|(5)-----|--------|-----------|
3rd Verse --------- 3. She falls apart no ones there Hold her hand it seems to disappear
|-----------------|-----------------|-----------------|------------------|
|-----------------|-----------------|-----------------|------------------|
|------0--2-0-----|-----------------|-------0--2-0----|-------0----------|
|----1------------|------2---1------|-----1-----------|-2p1-2---2-1------|
|--2-----------2--|--2-4-------2----|-2-2----------2--|--------------2---|
|-----------------|0------------0---|-----------------|------------------|
Falls apart might as well Day is long and nothing is wasted
Gtr. 2
|---------4-------|--------4--------|--------4--------|------------------|
|---------4-------|--------5--------|--------4--------|------------------|
|------4----------|-----4--4--------|-----4-----------|------------------|
|----4------------|---6-------------|---4-------------|------------------|
|-----------------|-4---------------|-----------------|------------------|
|-4---------------|-----------------|-4---------------|------------------|
Gtr.1 (clean w/chorus & delay)
|---------4-------|--------4--------|------4----------|------------------|
|---------4-------|--------5--------|------4----------|------------------|
|---------4-------|--------6--------|------4----------|-9-9-9-9----------|
|-----------------|---6-------------|------6----------|-9-9-9-9----------|
|----6------------|-4---------------|---6-------------|-7-7-7-7----------|
|-4---------------|-----------------|-4---------------|------------------|
3rd Chorus ---------- Runaway Runaway Hold on to you but your goin away (runaway runaway) (wanna wanna)
|-----------------|-----------------|-----------------|------------------|
|-9-9-9-9-9-9-9-9-|-5-5-5-5-5-5-5-5-|-9-9-9-9-9-9-9-9-|-5-5-5-5-4-4-4-4--|
|-9-9-9-9-9-9-9-9-|-6-6-6-6-6-6-6-6-|-9-9-9-9-9-9-9-9-|-6-6-6-6-4-4-4-4--|
|-9-9-9-9-9-9-9-9-|-7-7-7-7-7-7-7-7-|-9-9-9-9-9-9-9-9-|-6-6-6-6-4-4-4-4--|
|-7-7-7-7-7-7-7-7-|-7-7-7-7-7-7-7-7-|-7-7-7-7-7-7-7-7-|-4-4-4-4-2-2-2-2--|
|-7-7-7-7-7-7-7-7-|-5-5-5-5-5-5-5-5-|-----------------|------------------|
Runaway Runaway Hold on to you but your leaving today (runaway runaway) (wanna) (wanna)
|-----------------|-----------------|-----------------|------------------|
|-9-9-9-9-9-9-9-9-|-5-5-5-5-5-5-5-5-|-9-9-9-9-9-9-9-9-|-5-5-5-5-4-4-4-4--|
|-9-9-9-9-9-9-9-9-|-6-6-6-6-6-6-6-6-|-9-9-9-9-9-9-9-9-|-6-6-6-6-4-4-4-4--|
|-9-9-9-9-9-9-9-9-|-7-7-7-7-7-7-7-7-|-9-9-9-9-9-9-9-9-|-6-6-6-6-4-4-4-4--|
|-7-7-7-7-7-7-7-7-|-7-7-7-7-7-7-7-7-|-7-7-7-7-7-7-7-7-|-4-4-4-4-2-2-2-2--|
|-7-7-7-7-7-7-7-7-|-5-5-5-5-5-5-5-5-|-----------------|------------------|
Outro Chorus ------------ Runaway runaway Hold on to you but youre going away but youre
|-----------------|-5-5-5-5-5-5-5-5-|-----------------|------------------|
|-----------------|-5-5-5-5-5-5-5-5-|-----------------|-5-5-5-5--4-------|
|-9-9-9-9-9-9-9-9-|-6-6-6-6-6-6-6-6-|-9-9-9-9-9-9-9-9-|-6-6-6-6--4-------|
|-9-9-9-9-9-9-9-9-|-7-7-7-7-7-7-7-7-|-9-9-9-9-9-9-9-9-|-6-6-6-6--4-------|
|-7-7-7-7-7-7-7-7-|-7-7-7-7-7-7-7-7-|-7-7-7-7-7-7-7-7-|-4-4-4-4--2-------|
|-----------------|-5-5-5-5-5-5-5-5-|-----------------|------------------|
leavin today but youre leaving today ~~~~~~~~~~~~~~~~~
|-----------------------------------|------------------------------------|
|-5--5--5--5------4--4--------------|-5--5--5--5----4---4--4--4-0--9-----|
|-6--6--6--6------4--4--------------|-6--6--6--6----4---4--4--4-0--9-----|
|-6--6--6--6------4--4--------------|-6--6--6--6----4---4--4--4-0--9-----|
|-4--4--4--4------2--2--------------|-4--4--4--4----2---2--2--2-0--7-----|
|-----------------------------------|------------------------------------|
gtr. 2 ~~~~~~~ ~~~~~~~~~
|-----------------------------------|------------------------------------|
|-----------------------------------|------------------------------------|
|-----------------------------------|------------------------------------|
|-----------------------------------|------------------------------------|
|-----7-------7----7/97------------|-----7--7--7--76--------7----------|
|---------9-----------------9-------|------------------------------------|
let ring and then fade out





Ваше мнение



Капча