Artist: Sugar Ray
Song: Answer the Phone
Tabbed by: Rohan Desai
[email protected]

yo ppl, this is the right version, no doubt bout it. Email me if you have any queries.

Intro:

e|---------------------------------------------------------|
B|-----------4------------4----------------4----------4----|
G|---------------------------------------------------------|
D|--------6-----6-----6-------6---------6-----6---6------6-|
A|----------------------------------6----------------------|
E|----4----------------------------------------------------|

e|---------------------------------------------------------|
B|--------4---------4--------------4---------4-------------|
G|---------------------------------------------------------|
D|-----6-----6---6-----6--------6-----6---6------6---------|
A|--8-----------------------4------------------------------|
E|---------------------------------------------------------|

Main Verse: Strum the first three power chords 16 times each quickly (664, 886 and 10 10 8) then continue the rest normally

e|---------------------------------------------------------|
B|---------------------------------------------------------|
G|------8---10---11-11-10------11-11-10-----11-11-10-6-----|
D|--6---8---10---11-11-10-11---11-11-10-11--11-11-10-6-----|
A|--6---6---8-----9--9--8-11----9--9--8-11---9--9--8-4-----|
E|--4----------------------9-------------9-----------------|

repeat until end.





Ваше мнение



Капча