name: jgscribble
artist: Sugar Ray
SongTitle: Aim for Me
Tabs: Aim for me
G--2-----2-----------
D--2-----2-----2-----
Chorus A--0-----0-----2-----
E--------------0-----
PM PM PM PM PM
/ / / / /
G--------------2-2222----------2-2222----------4-
D--2-22222222--2-2222--2-2222--2-2222--2-2222--4-
Verse A--2-22222222--0-0000--2-2222--0-0000--2-2222--2-
E--0-00000000----------0-0000----------0-0000----
G--2--------6--------------
D--2--4--2--6--4--6--2-----
Chorus 2 A--0--4--2--4--4--6--2-----
E-----2--0-----2--4--0-----
a bunch of
times real fast
/
e-12h15p12-----------------------------------------
B------------------------------7h9-----------------
G----------------------------------------9---------
D-----------------------5b6---------9-11---9-------
A-------------------5-7-----7----------------11--9-
E-----------0-3-5-7--------------------------------
Solo
e-----------11b12-12--------------------------12hold
B--------------------14-14-14--12----14-12b---------
G----7~~-------------14-14-14--12----14-12b---------
D---9-----------------------------14--------14------
A--7------------------------------------------------
E---------------------------------------------------
e--0------0------2------------------------------
B--0------0------4------------------------------
G--2------1------4-----1h2---1h2---2------------
End D--2------2------4-----2-----2-----2------------
A--2------2------2------------------------------
E--0------0------2------------------------------
This is the order to play it in
Chorus 4X's
Verse 2X's
Chorus 2 2X's
Chorus 4X's
Verse 2X's
Chorus 2 2X's
Chorus 4X's
Solo
Chorus 2 2X's
Chorus 5X's
End
This was my first tab, so don't get all pissed off if it's wrong, it's
a real fun song to play, so pull out yer get-tar and have fun!





Ваше мнение



Капча