Riff 1
--------------------------------- --------------------------------|
--------------------------------- --------------------------------|
--------------------------------- --------------------------------|
12--12-12-13-12-10-12-13-12- 12-12-12-13-12-16-16-17/16-----|
--------------------------------- --------------------------------|
-9--9--9--10--9--8--9-11--9- -9---9--9-10-9-14-14-15/14-----|
Riff 2
------------------------------------------------------------------------|
------------------------------------------------------------------------|
------------------------------------------------------------------------|
----------------------------------------------------- repeat the riffs--| 2x
17/16---17/16---19-19----17/16---17/16---20-19--------------------------|
15/14-0 15/14-0 17-17-00 15/14-0 17/16-0-18-17--------------------------|
----------------------------------------------------------------------------|
----------------------------------------------------------------------------|
----------------------------------------------------------------------------|
7-777-7-10--7-777-7-11-10----------------------- Repeat other riff 1-2-|
----------------------------------------------------------------------------|
5-555-5--8--5-555-5--9--8---------------------------------------------------|
Thats all i have for now.
Email at [email protected] if you have any suggestions or corrections




Ваше мнение



Капча

Рекомендуем