#----------------------------------PLEASE NOTE---------------------------------#
#This file is the author's own work and represents their interpretation of the #
#song. You may only use this file for private study, scholarship, or research. #
#------------------------------------------------------------------------------#
#
STEVE VAI
Ballerina 12/24
from : Cedric JOUBERT (FRANCE)
e-mail: [email protected]
Harmony effect /////
E---------------------------------|-----14------------------------------|
B---------------------------------|-----12------------------------------|
G---------------------------------|-----11------------------------------|
D---------------------------------|-------------------------------------|
A---------------------------------|-------------------------------------|
E---------------------------------|-------------------------------------|
///// ///// /////
E---14--------|--17-----------------17--------|-------------------------|
B---12--------|--15-----------------15--------|-------------------------|
G---11--------|--14-----------------14--------|-------------------------|
D-------------|-------------------------------|-------------------------|
A-------------|-------------------------------|-------------------------|
E-------------|-------------------------------|-------------------------|
Let ring ----------| ///// /////------|
E----------12-----------------12--------|----------------15--------------|
B------10---------------------10--------|---------13---------------------|
G---9-------------------------9---------|--12----------------------------|
D---------------------------------------|--------------------------------|
A---------------------------------------|--------------------------------|
E---------------------------------------|--------------------------------|
Let ring ------------------------------------| ....
E---|--(15)-----------------|--------3-----------3-----|--------3--------|
B---|-----------------------|-----1-----1-----1-----1--|-----1-----1-----|
G---|-----------------------|--------------------------|-----------------|
D---|-----------------------|--------------------------|-----------------|
A---|-----------------------|--3-----------3-----------|--3--------------|
E---|-----------------------|--------------------------|-----------------|
E---3-----3-----|--------3-----------3-----|--------3-----3-----3-------|
B------1-----1--|-----1-----1-----1-----1--|-----1-----1-----1-----3----|
G---------------|--------------------------|----------------------------|
D---------------|--------------------------|----------------------------|
A---------------|--3-----------3-----------|--3-------------------------|
E---------------|--------------------------|----------------------------|
E----|--------6-----------6----|--------9-----9-----9----|--------------|
B---/|-----4-----4-----4-------|-----7-----7-----7-------|------10------|
G----|-------------------------|-------------------------|--------------|
D----|-------------------------|-------------------------|--------------|
A----|--6-----------6--------6/|--9--------------------9/|--12----------|
E----|-------------------------|-------------------------|--------------|
E---12--------------12-----|----------15------15------15------|---------|
B-------10------10---------|------13------13------13------13--|---------|
G--------------------------|----------------------------------|--0------|
D--------------------------|----------------------------------|---------|
A-----------12----------12/|--15------------------------------|---------|
E--------------------------|----------------------------------|---------|
E-------17-----5-----10-----|---------17-----5-----10--------|----------|
B---15------3-----8------8--|-----15------3-----8------------|----------|
G---------------------------|--0-----------------------------|--0-------|
D---------------------------|--------------------------------|----------|
A---------------------------|--------------------------------|----------|
E---------------------------|--------------------------------|----------|
E-------17-----5-----10-----|---------17-----5--------22--|-------------|
B---15------3-----8------8--|-----15------3-----3/20------|-----15------|
G---------------------------|--0--------------------------|--0----------|
D---------------------------|-----------------------------|-------------|
A---------------------------|-----------------------------|-------------|
E---------------------------|-----------------------------|-------------|
E---17-----5-----10-----|---------17-----5-----10--------|--------------|
B-------3-----8------8--|-----15------3-----8------------|-----15-------|
G-----------------------|--0-----------------------------|--0-----------|
D-----------------------|--------------------------------|--------------|
A-----------------------|--------------------------------|--------------|
E-----------------------|--------------------------------|--------------|
E---17-----5-----10-----|---------17-----5--------22--|--------17/22----|
B-------3-----8------8--|-----15------3-----3/20------|--8--15/---------|
G-----------------------|--0--------------------------|--0--------------|
D-----------------------|-----------------------------|-----------------|
A-----------------------|-----------------------------|-----------------|
E-----------------------|-----------------------------|-----------------|
E----------1710--|--------17/22---------17/20--|--------17/22----------|
B---2015---------|--8/15---------2015---------|--8/15---------20------|
G-----------------|--0--------------------------|-----------------------|
D-----------------|-----------------------------|-----------------------|
A-----------------|-----------------------------|-----------------------|
E-----------------|-----------------------------|-----------------------|
E--------17/20--|--------17/22--22--22--22--22--|-----------------------|
B---15---------|--8/15---------20--20--20--20--|-----------------------|
G---------------|-------------------------------|-----------5-----------|
D---------------|-------------------------------|-----3-----------3-----|
A---------------|-------------------------------|--------3--------------|
E---------------|-------------------------------|--1-----------1--------|
E---------|-----------------------10--|--------------------------|------|
B---------|-----------------8---------|--------------------------|------|
G------5--|-----------5--------7------|-----------9-----------9--|------|
D---------|-----3--------5------------|-----7-----------7--------|------|
A---3-----|--------3------------------|--------7-----------7-----|------|
E---------|--1------------------------|--5-----------5-----------|------|
mute ----------------------------------|
E-----------------------------14--||-------------------------------------|
B---------------------13----------||-------------------------------------|
G-------------11----------11------||*--------------16--------------------|
D------10---------10--------------||*------14--------------14------------|
A----------9----------------------||-----------14--------------14--------|
E---8-----------------------------||---12--------------12----------------|
mute ----------------|
E-------|------------------------------21---||---22------------------|
B-------|----------------------19-----------||-------20--22----------|
G---16--|--------------16----------18------*||*--------------19------|
D-------|------14----------16--------------*||*----------------------|
A-------|----------14-----------------------||-----------------------|
E-------|--12-------------------------------||-----------------------|
E---22--------------|--22-------------------------------||----------|
B-------20--22------|------20--22------22------22-------||----------|
G---------------19--|--------------19------19------19--*||*--20-----|
D-------------------|----------------------------------*||*---------|
A-------------------|-----------------------------------||----------|
E-------------------|-----------------------------------||----------|
E-------21--------------21------|----------21------21------21-----------|
B---21------21------21------21--|------21------21------21------21-------|
G---------------20--------------|--20-----------------------------------|
D-------------------------------|---------------------------------------|
A-------------------------------|---------------------------------------|
E-------------------------------|---------------------------------------|
////
E----||--21--------------------||---------------------------------------|
B----||--21--------------------||---------------------------------------|
G---*||--20--------------------||---------------------------------------|
D---*||------------------------||---------------------------------------|
A----||------------------------||---------------------------------------|
E----||------------------------||---------------------------------------|
========================================================================
== TABLATURE EXPLANATION ==
========================================================================
---------- ---------- ----t---|
----5h8--- Hammeron ----(8)--- Ghost ----6---| Tap
---------- ---------- Note --------|
----5p8--- Pulloff ---------- --------|
---------- ---------- -----p--|
----5/8--- Slide Up -----x---- Dead -----7--| Pop
---------- ---------- Note --s-----|
----58--- Slide Down ---------- --5-----| Slap
---------- ||------|| Repeat --------|
----5~~~-- Vibrato ||*----*|| ---5^---| Bend
---------- ||*----*|| --------|
---------- ||------|| --------|
---------- ---------- --------|
-4:------- Time ---------- --------|
-4:------- Signature ---------- --------|
---------- ---------- --------|
Rhythm:
w = whole note W = dotted whole
h = half note H = dotted half
q = quarter note Q = dotted quarter
e = eighth note E = dotted eighth
s = sixteenth note S = dotted sixteenth
t = 32nd note T = dotted 32nd
x = 64th note X = dotted 64th
^ = triplet




Ваше мнение



Капча