This is not the whole song, but the biggest part of it. The firts rythm thing
is played several times before the main guitar-thing comes in.
There are also some chords and stuff played along the rythm-thing,
but that was too much work to transcribe. And yes, I know
that there are some parts that aren't correct, but this is just
to give you an idea of how it's played.
Have fun!
Andreas J”nsson
slow
bend b1
|-5-----5---5-7-97-5-7-----5-5-7-97-5-7-7--||-------------------------------
|-5-x-x-5-x-5-7-97-5-7-----5-5-7-9-7-5-7-7--||----9------9-9p7---------------
|-------------------------------------------*||-----------------9-9~~~-9-9----
|-------------------------------------------*||-------------------------------
|--------------------------------------------||-------------------------------
|--------------------------------------------||-------------------------------

slow
bend b1 P.H
---------------------------------------------|--------------------------------
-/14-14-14-12-14-12-147-5-5h7---7p5-7/97/9-|------9------9-9p7--------------
9--------------------------------------------|---9---------------9--9~~~-9----
---------------------------------------------|--------------------------------
---------------------------------------------|--------------------------------
---------------------------------------------|--------------------------------

b2 rb b1 rb
----------------------------16--------------|---------------------------------
---/15-15-15-12-15-17-17/19-----19--(19)-17-|---18--17--(17)p15h17p15---------
9-9-----------------------------------------|-------------------------16-17---
--------------------------------------------|---------------------------------
--------------------------------------------|---------------------------------
--------------------------------------------|---------------------------------

b2 rb
-----------------------------------------|-------------------------15--(15)---
-----------------------------------------|-----------------/17-15-------------
--17p16p14-------------------------------|-----------/14-12-------------------
-----------17-15-14-15-14-15-15/17-------|-----/14-12-------------------------
-----------------------------------17-17-|--10-------------------------------
-----------------------------------------|------------------------------------

Some tapping.Some multi-guitar...
|------------|--------------|-------------------------------------------------
|------------|--------------|-------------12-10--/13-12-10------------10------
|------------|--------------|/14-14-12-14------------------12-109------------
|------------|--------------|--------------------------------------10----9----
|------------|--------------|-------------------------------------------------
|------------|--------------|-------------------------------------------------

slow bend
b2 rb bend up and down
---|-----------------------------15/22-22-22|---------------------------------
---|----13---13-15--15--(15)-13------------|--9------9---------9p7-----------
---|/14---/14-------------------------------|-----------------------9-9~~~----
8-|----------------------------------------|---------------------------------
---|----------------------------------------|---------------------------------
---|----------------------------------------|---------------------------------

b1 rb b1 rb b1 rb b2 rb
---------------------------------------------------|--------------------------
-----/14-14-14-12-14-12-147-5-5h7---7p5-7/97p5-7-|--9--------------9-10-----------
9-9-9----------------------------------------------|----------------------11--11---
---------------------------------------------------|--------------------------
---------------------------------------------------|--------------------------
---------------------------------------------------|--------------------------

b2 rb b2 rb b2 rb
-----------------------------------16-----------16-----------16---------------
----------/15-15-15-12-15-17-17/19-----19--(19)-----19--(19)-----19--(19)-----
9~~~-9-9-9--------------------------------------------------------------------
------------------------------------------------------------------------------
------------------------------------------------------------------------------
------------------------------------------------------------------------------

repeat
b2
16--19-|--9--7--7--7------------9--5--5--5-----------9--5--5--5-----------------
-------|--------------9--7--5---------------9--7--5--------------9--7--5-5-5-7-9
-------|------------------------------------------------------------------------
-------|------------------------------------------------------------------------
-------|------------------------------------------------------------------------
-------|------------------------------------------------------------------------

The last part of the song is basicly a variation of this last bar, but played
at different positions of the neck.
THE END
==============================================================================
== TABLATURE EXPLANATION ==
==============================================================================
---------- ----------
----5h8--- Hammeron ----(8)--- Ghost Note
---------- ----------
----5p8--- Pulloff ----------
---------- ----------
----5/8--- Slide Up -----x---- Dead Note
---------- ----------
----58--- Slide Down ----------
b2 rb
---------- ----------
----5~~~-- Vibrato --9------- full bend
---------- ----------
---------- -------9-- release bend
==============================================================================
== Created with a shareware version of the BUCKET 'O TAB ==
== tablature creation software for Windows ==
== For more information: ==
== email: [email protected] ==
== US Mail: The Bucket, 3176-B5 Summit Square Dr., Oakton, VA 22124 ==
==============================================================================




Ваше мнение



Капча

Рекомендуем