-------------------------------------------------------------------------------
Gynecologist - Stephen Lynch
-------------------------------------------------------------------------------
Tabbed by:Neil Simpson
Email:[email protected]
Tuning:E-A-D-G-B-E
The chords are played staccato fashion, so mute all the strings after strumming
INTRO:
e|-------------|-------------|-------------|-------------|
B|-2--2--2h3---|-2--2--2h3---|-2--2--2h3---|-2---3-2-----|
G|-2--2--2h3---|-2--2--2h3---|-2--2--2h3---|-2------3-2--|
D|-2--2--2h3---|-2--2--2h3---|-2--2--2h3---|-2---------3-|
A|-0--0--0-0---|-0--0--0-0---|-0--0--0-0---|-0-----------|
E|-------------|-------------|-------------|-------------|
e|-------------|-------------|-------------|---------------|
B|-2--2--2h3---|-2--2--2h3---|-2--2--2h3---|-2----------2-3|
G|-2--2--2h3---|-2--2--2h3---|-2--2--2h3---|-2------2-3----|
D|-2--2--2h3---|-2--2--2h3---|-2--2--2h3---|-2--2-3--------|
A|-0--0--0-0---|-0--0--0-0---|-0--0--0-0---|-0-------------|
E|-------------|-------------|-------------|---------------|
e|-------------|-------------|-------------|---------------|
B|-2--2--2h3---|-2--2--2h3---|-2--2--2h3---|-2-------------|
G|-2--2--2h3---|-2--2--2h3---|-2--2--2h3---|-2-------------|
D|-2--2--2h3---|-2--2--2h3---|-2--2--2h3---|-2-------------|
A|-0--0--0-0---|-0--0--0-0---|-0--0--0-0---|-0-------------|
E|-------------|-------------|-------------|------~3-------|
VERSES AND CHORUS:
e|-------------|-------------|-------------|-------------|
B|-2--2--2h3---|-2--2--2h3---|-2--2--2h3---|-2--2--2h3---|
G|-2--2--2h3---|-2--2--2h3---|-2--2--2h3---|-2--2--2h3---|
D|-2--2--2h3---|-2--2--2h3---|-2--2--2h3---|-2--2--2h3---|
A|-0--0--0-0---|-0--0--0-0---|-0--0--0-0---|-0--0--0-0---|
E|-------------|-------------|-------------|-------------|
Thats it. Listen to the song to get the mutes and the slaps on the body of the guitar.
| / slide up
| slide down
| h hammer-on
| p pull-off
| ~ vibrato
| + harmonic
| x Mute note




Ваше мнение



Капча