(подбирал Dmitrу Foxx 2:5030/1341.7)

Intro: Em7 Em7* D C* - x4
Em7 Em7* D C*
e|--3---3---2---0--
B|--3---3---3---3--
G|--0---2---2---0--
D|--2---0---0---2--
Н|--2---2---0---3--
E|--0---0---0---0--

solo:(играется на пианино) в интро звучит и потом
после каждого куплета

Em7 Em7* D C* (C)
1|-2-3-2-------2-3-2---5-2--2-3-2---5-2--2-3-2--------
2|-------3-5---------3------------3------------3-5-7-8
3|----------------------------------------------------

Em7
Я не смог спасти мир, спокойно
Em7*
Не надо кричать
D
Сдаюсь, я в руках правосудия
C* (C)
И значит мне овечать

Ты не умеешь любить
Жаль, что я не убийца
Остается только курить
И накуриться

Am
Лед, головой об лед
Em9
Я плыл по теченью
И бился об лед
D D*
Головой об лед

Героев осталось мало
Я буду скучать
Постараюсь забыть про всех
Я буду как можно больше молчать

То холод, но то тепло
У себя воруешь
Если хочешь согреться встаешь
Прикуриваешь и куришь

Em9 (1-6) - 300220
D* - 332000 или 032000




Ваше мнение



Капча