(подбирал Dmitrу Foxx 2:5030/1341.7)

Intro: Cm Gm

1|----------------------------------------------|
2|---8---8--10-11-10-8------8---8--10-11-10-8---|
3|-8---8---------------8--7---7---------------7-|

1|----------------------------|
2|---8---8--10-11-10-8--------|
3|-8---8---------------8--7---|

2 раза +

1|-------------5^6^5--14----|
2|----7---10----------------|
3|--7---7-------------------|

Gm
Осторожно, только по краю
D#
Не смотри на асфальт там лужи
Cm
В лужах тоже небо из рая
D7
Значит небу это не нужно

Мне не важно что будет завтра
Лишь бы только не было хуже
Лишь бы знать где случится чудо
Лишь бы ты не смотрела в лужи

Gm D#
Ди - джеи сходят с ума не бойся, Падай!
Cm F D7
Достань до самого дна, падай в любовь, Падай!
Ди - джеи сходят с ума не бойся, Падай!
Достань до самого дна, падай в любовь, Падай!

Но земля от меня отказалось
В небо сам никогда не верил
Я хочу чтобы ты не боялась
Чтобы ты не смотрела в небыль




Ваше мнение



Капча