Transcribed by: UproX
Email: [email protected]
Site: http://uprox.narod.ru
Intro:
Fm D# Fm D# Fm
-1------------4---3--(4)----------3-4p3--1---3-4p3--1----------------------
-1--------6---6---4---6---4---6---4------1---4------1----------------------
-1--------5--------------(3)--5---3------1---3------1----------------------
-3--------------------------------5------3---5------3----------------------
-3--------------------------------6------3---6------3----------------------
-1--------------------------------3------1---3------1----------------------
D# Fm D# Fm Bbm Fm Bbm
-------4--3--4---------3-4p3--1---3-4p3--1---|--1-----------1--1--------------1-----------1-
-6--6--6--4--6--4--6---4------1---4------1---|--2--2--2--1-----1--1--1--------2--2--2--1----
-5-------------(3)-5---3------1---3------1---|--3--------------1--1-----1--1--3-------------
-----------------------5------3---5------3---|--3--------------3-----------3--3-------------
-----------------------6------3---6------3---|--1--------------3--------------1-------------
-----------------------3------1---3------1---|--1--------------1--------------1-------------

Bbm Fm Bbm Fm Fm Cm Fm
-1-----------1-------1----4-6--1---6--8-^6--4-3--1------3---3----1--------1-
-2--4-2-0h1--1-------2---------1-----------------1--1---4-----4--1--0--1----
-3-----------1--0-1--3---------1-----------------1------5-----5--1----------
-3-----------3-------3---------3-----------------3------5--------3----------
-1-----------3-------1---------3-----------------3------3--------3----------
-------------1-------1---------1-----------------1------3--------1----------




Ваше мнение



Капча

Комментарии

rus' umom ne poniat'
eto tochno, a sobstvenno v chem otliche slov tekst i slova pesni??
Sataniel
ахуеть какой текст песни!!