SEPULTURA - THE HUNT (Cover)
From the Album CHAOS A.D
Copyright 1993 Roadrunner
Version 1.0 - March - 2001
Transcribed by: Marcus Рдiviц
For Questions, Comments, Newest Version, or Corrections contact
Marcus Рдiviц : at ([email protected])
.. - palm mute / - slide up to
- slide down to ~ - vibrato
h - hammer on b - bend
p - pull off Suffixes for bend
ph - pinch harmonic
f - full bend h - half bend
* - see comment r - release t - tap bend
X - percussion mute ~ - vibrato bend
@ - slight palm mute () - ghost note, sustained note
Tune Gtr to D
Sepultura - The Hunt
Intro
|----------------------------|
|----------------------------|
|----------------------------|Gtr
|----------------------------| I
|----------3-----------3-----|
|-0----2-3----0----2-3---2-3-|
Riff A
|-------------------------------------------------------------|
|-------------------------------------------------------------|
|-------------------------------------------------------------|Gtr
|-------------------------------------------------------------| I
|---2--2-3-2-0-2-0-------3--------2--2-3-2-0-2-0-------3------|
|-0----------------3-2-0--------0----------------3-2-0--------|
| |
|-------------------------------------------------------------|
|-------------------------------------------------------------|
|-------------------------------------------------------------|Gtr
|-------------------------------------------------------------| II
|-------------------------------------------------------------|
|-0-00-0-000-000-0-00-0-000-000-0-00-0-000-000-0-00-0-000-000-|
Riff B
|-00-0-000-00-0-000--00-0-000-00-0-000-|
|-88-8-888-77-5-555--88-8-888-77-5-555-|
|--------------------------------------|Gtr
|--------------------------------------| I
|--------------------------------------|
|--------------------------------------|
| |
|--------------------------------------|
|--------------------------------------|
|-5------------------5-----------------|Gtr
|-5------------------5-----------------| II
|-3------------------3-----------------|
|--------------------------------------|
Repeat Riff A (1 times)
Repeat Riff B (1 times)
Repeat Riff A (1 times)
Riff C
|--------------------------------------------|
|--------------------------------------------|
|--------------------------------------------|Gtr
|---3---2---3--------------3---2---3---------| I
|-----5---3---5--------------5---3---5-------|
|--------------------------------------------|
| |
|--------------------------------------------|
|--------------------------------------------|
|-7-------------10--5----7-------------10--5-|Gtr
|-7-------------10--5----7-------------10--5-| II
|-5-------------8---3----5-------------8---3-|
|--------------------------------------------|
Riff D
|---------------------------------------------------------------|
|---------------------------------------------------------------|
|---------------------------------------------------------5-4---|Gtr
|-------------------------------------------------------------5-| I
|----------------3----------------2------------3----------------|
|-0----------2-3------------2-3-0----------2-3------------------|
| |
|---------------------------------------------------------------|
|---------------------------------------------------------------|
|---------------------------------------------------------------|Gtr
|---------------------------------------------------------------| II
|---------------------------------------------------------------|
|-0-00-0-000-000-0-00-0-000-000-0-00-0-000-000-0-00-0-000-000---|
Repeat Riff B (1 times)
Repeat Riff A (1 times)
Repeat Riff B (1 times)
Repeat Riff A (1 times)
Repeat Riff C (1 times)
Riff E
|--------------------------------------|
|--------------------------------------|
|-2------------7------7------10-----10-|Gtrs I
|-2------------7------7------10-----10-| & II
|-0--------5-5-5--5-5-5--8-8-8--8-8-8--|
|--------------------------------------|
Repeat Riff E (3 times)
Interlude
|----------------------------------------|
|----------------------------------------|
|----------------------------------------|Gtr
|---11-11-9----7-7-6---------------------| I
|-9----------7----------11-11-9----7-7-6-|
|---------------------9----------7-------|
| |
|----------------------------------------|
|----------------------------------------|
|---------------------6----------4-------|Gtr
|-4----------2--------6----------4-------| II
|-4----------2--------4----------2-------|
|-2----------0---------------------------|
Repeat Interlude (1 time)
Then
Repeat Riff B (1 times)
Repeat Riff A (1 times)
Repeat Riff B (1 times)
Repeat Riff A (1 times)
Repeat Riff C (1 times)
Repeat Riff E (4 times)
Riff F
|------------|
|------------|
|-3--5--2--3-|Gtrs I
|-3--5--2--3-| & II
|-1--3--0--1-|
|------------|
Repeat Riff F (1 times)
Riff G
|------------------------------------------------|
|------------------------------------------------|
|-----2-------2-3-------3-2-------2-3----3-3-3-3-|Gtrs I
|-3---2-------2-3-------3-2-------2-3----3-3-3-3-| & II
|-3---0----00-0-1----11-1-0----00-0-1----1-1-1-1-|
|-1----------------------------------------------|
Repeat Riff E (2 times)
Riff E.2
|---------------5--------------8--------|
|---------------5--------------8--------|
|---------------------------------------|Gtr
|---------------------------------------| I
|---------------------------------------|
|---------------------------------------|
| |
|---------------------------------------|
|---------------------------------------|
|-2------------7------7------10------10-|Gtr
|-2------------7------7------10------10-| II
|-0--------5-5-5--5-5-5--8-8-8---8-8-8--|
|---------------------------------------|
Repeat Riff E (1 times)
Riff I
|--------------------------|
|--------------------------|
|-----5--------4--------7~-|Gtrs I
|-----5--------4--------7~-| & II
|-0-0-3----0-0-2----0-0-5~-|
|--------------------------|





Ваше мнение



Капча

Рекомендуем