-----------------------------
***Straighthate--Sepultura***
-----------------------------
Written by Sepultura
4-string bass tuned down 1/2 step
INTRO:
G|--------------------------------------
D|--------------------------------------
A|--------------------------------------
E|--0--0--0--0--0--0--0--0--0--0--0--0--.... (Just keep pedaling Eb)
VERSE RIFF 1:
G|-----------------------------------------|
D|-----------------------------------------|
A|-----------------------------------------|
E|--1--0--0--0--3--0--3--4--3--0--0--0--0--|
VERSE RIFF 2:
G|--------------------------------------|
D|--------------------------------------|
A|--------------------------------------|
E|--0--1--0--1--0--1--1--1--1--1--1--1--|
CHORUS:
G|-----------------------------------------|
D|-----------------------------------------|
A|--4--1--1--4--1--1--4--1--1--------------|
E|-----------------------------0--0--0--0--|
BRIDGE:
G|--------------|
D|--------------| PLAY THIS THREE TIMES
A|--------------|
E|--1--0--0--0--|
G|-------------------------|
D|-------------------------|
A|-------------------------|
E|--0/5--5--5--5--5--5--5--|
G|--------------------------|
D|--------------------------| PLAY THIS FOUR TIMES
A|--------------------------|
E|--5--0--3--0--1--0--3--0--|
G|-----------|
D|-----------| PLAY FOUR TIMES
A|-----------|
E|--1--1--0--|

transcribed by max asare





Ваше мнение



Капча