From: Juan Carlos Montes
Subject: Tab: Sepultura 'Slave New World'
Date: Fri, 5 Jan 1996 21:04:16 -0400 (GMT-0400)
From: HoSsMaR GuEvArA ([email protected])
S L A V E N E W W O R L D
(Sepultura)
From the album Chaos A.D.
Notes: This is the best i do about this song, if you have the official
tab, and there is any difference betwen that and mine, please
mail me, i'll apreciate it.
About the tempo, i dont have any idea about it, and about the solo
I'm not sure about the second part.
Remember this song is tuned to D (low-high : D G C F A D).
Gtr. 1 Both Guitars
d:------------------------------------------------------------------------
A:------------------------------------------------------------------------
F:------------------------------------------------------------------------
C:------------------------------------------------------------------------
G:--2----4----5--------2----4----5--------2----4----5--------2----4----5-
D:--0----2----3--------0----2----3--------0----2----3--------0----2----3-
Gtr.1
d:-|-|-----------------------------------|-|
A:-|-|-----------------------------------|-|
F:-|O|-----------------------------------|O|
C:-|O|-------------------------------4/3-|O|
G:-|-|-------------------------------2/1-|-|
D:-|-|-0-0-0-0-0-0-0-0-0-0-0-0-0-0-0-----|-|
Pm...........................
Both Guitars 4 Times
d:-|-|-----------------------------------|-|
A:-|-|-----------------------------------|-|
F:-|O|-----------------------------------|O|
C:-|O|-------------------------------4/3-|O|
G:-|-|-------------------------------2/1-|-|
D:-|-|-0-0-0-0-0-0-0-0-0-0-0-0-0-0-0-----|-|
Pm...........................
d:-----------------------------------------------------------------------
A:-----------------------------------------------------------------------
F:-----------------------------------------------------------------------
C:-----------------------------------------------------------------------
G:--2----4----5--------2----5----8--------2----4----5--------2----5----8-
D:--0----2----3--------0----3----6--------0----2----3--------0----3----6-
W/Lyrics 1. 4 Times
d:-|-|-----------------------------------|-|
A:-|-|-----------------------------------|-|
F:-|O|-----------------------------------|O|
C:-|O|-------------------------------4/3-|O|
G:-|-|-------------------------------2/1-|-|
D:-|-|-0-0-0-0-0-0-0-0-0-0-0-0-0-0-0-----|-|
Pm...........................
Lyrics.1/
Face the enemy
Stare inside you
Control your toughts
Destroy destroy'em all
d:----------------------------------
A:----------------------------------
F:----------------------------------
C:----------------------------------
G:-----2-3-6----2-3-6----2-3-6----3-
D:--00-0-1-4-00-0-1-4-00-0-1-4-00-1-
.. .. .. ..
Gtr.1 8 Times
d:-|-|-------------|-|
A:-|-|-------------|-|
F:-|O|-------------|O|
C:-|O|-------2/3-2-|O|
G:-|-|-------------|-|
D:-|-|-0-1-1-------|-|
| | h | |
| | | |
| | | |
| |Gtr.2 8 Times| |
d:-|-|-------------|-|
A:-|-|-------------|-|
F:-|O|-------------|O|
C:-|O|-------------|O|
G:-|-|-----3-------|-|
D:-|-|-0-1-1-------|-|
h
W/Lyrics 2. 4 Times
d:-|-|------------------------------------------|-|
A:-|-|------------------------------------------|-|
F:-|O|------------------------------------------|O|
C:-|O|------------------------------------------|O|
G:-|-|-------2/3-3-------2/3-3-------2/3-3-2----|-|
D:-|-|-0-1-1-0-1-1-0-1-1-0-1-1-0-1-1-0-1-1-0----|-|
h h h h h h
Lyrics.2/
You censor what we breathe
Predjudiced with no belief
Senseless violence all around
Who is it that keep us down?
d:------------------------------------------------------------------------
A:------------------------------------------------------------------------
F:------------------------------------------------------------------------
C:------------------------------------------------------------------------
G:--2-3-6----2-3-6----2-3-6------------2-3-6----2-3-6----2-3-6------------
D:--0-1-4-00-0-1-4-00-0-1-4-0000000000-0-1-4-00-0-1-4-00-0-1-4-0000000000-
.. .. .......... .. .. ..........
W/Lyrics 3.
d:-|-|-----------------------------------|-|
A:-|-|-----------------------------------|-|
F:-|O|-----------------------------------|O|
C:-|O|-8/10-10-8/10-10-8/10-10-8/10-10-9-|O|
G:-|-|-6/8--8--6/8--8--6/8--8--6/8--8--7-|-|
D:-|-|---------------------------------0-|-|
Lyrics.3/
Once all free tribes
Chained down led lives
Blood boils inside me
We're not slaves we're free.
d:-------------------------------------------------------------
A:-------------------------------------------------------------
F:-------------------------------------------------------------
C:-------------------------------------------------------------
G:----------------------------------2----2---------2----2------
D:--0-0--0-0--2\\--0-0--0-0--2\\--0-0--0-0--2\\--0-0--0-0--2\\-
... ... ... ... . . . .
d:-------------------------------
A:-------------------------------
F:-------------------------------
C:-------------------------------
G:----2----2---------2----2------
D:--0-0--0-0--2\\--0-0--0-0--2\\-
. . . .

d:-|-|--------------------------------------------|-|
A:-|-|--------------------------------------------|-|
F:-|O|-9--------10----12----13--------12----10----|O|
C:-|O|-/--------/-----/-----/---------/-----/-----|O|
G:-|-|-/--------/-----/-----/---------/-----/-----|-|
D:-|-|--------------------------------------------|-|
Tremolo Picking........................
2 Times
d:-|-|-----------------------------------------|-|
A:-|-|--10/11--11-11-11--12/13-13-12/13-13-11--|-|
F:-|O|--9-/10--10-10-10--11/12-12-11/12-12-10--|O|
C:-|O|-----------------------------------------|O|
G:-|-|-----------------------------------------|-|
D:-|-|-----------------------------------------|-|
)
d:-|-|--------------------------21--|
A:-|-|--10/11--11-11-11------20-----|
F:-|O|--9-/10--10-10-10--/21--------|
C:-|O|------------------------------|
G:-|-|------------------------------|
D:-|-|------------------------------|
W/Lyrics 1. 4 Times
d:-|-|-----------------------------------|-|
A:-|-|-----------------------------------|-|
F:-|O|-----------------------------------|O|
C:-|O|-------------------------------4/3-|O|
G:-|-|-------------------------------2/1-|-|
D:-|-|-0-0-0-0-0-0-0-0-0-0-0-0-0-0-0-----|-|
Pm...........................
Lyrics.1/
Face the enemy
Stare inside you
Control your toughts
Destroy destroy'em all
4 Times
d:-|-|-----------------------------------|-|-------|
A:-|-|-----------------------------------|-|-------|
F:-|O|-----------------------------------|O|-------|
C:-|O|-------------------------------4/3-|O|-------|
G:-|-|-------------------------------2/1-|-|-2-3-6-|
D:-|-|-0-0-0-0-0-0-0-0-0-0-0-0-0-0-0-----|-|-0-1-4-|
Pm...........................

From: mmg2
S L A V E N E W W O R L D
(Sepultura)
From the album Chaos A.D.
Notes: I'm not sure about all of this, as I only had a live version to work off
when I worked it all out, so I haven't included any of the solos or the
bit at the end where there is a chord form outlined by the second gtr.
Remember to tune down to D!!! (low-high : D G C F A D). Also the
arrangement may not be 100 percent correct, so please check it for
yourself!!
RIFF 1:
E5 F#5 G5
e -----------------------------------------------------------------------------
b -----------------------------------------------------------------------------
g -----------------------------------------------------------------------------
d -----------------------------------------------------------------------------
a --------2-------4-------5----------------------------------------------------
E --------0-------2-------3----------------------------------------------------
COUNT: 1 & 2 & 3 & 4 & 1 & 2 & 3 & 4 &
RIFF 2:
Bb5 A5
e -----------------------------------------------------------------------------
b -----------------------------------------------------------------------------
g -----------------------------------------------------------------------------
d -----------------------------------------------------------------------------
a -------------------------------------8-7-------------------------------------
E ---------0-0-0-0-0-0-0-0-0-0-0-0-0-0-6-5-------------------------------------
COUNT: 1 & 2 & 3 & 4 & 1 & 2 & 3 & 4 &
RIFF 3:
E5 G5 Bb5
e -----------------------------------------------------------------------------
b -----------------------------------------------------------------------------
g -----------------------------------------------------------------------------
d -----------------------------------------------------------------------------
a ----------2-------5-------8--------------------------------------------------
E ----------0-------3-------6--------------------------------------------------
COUNT: 1 & 2 & 3 & 4 & 1 & 2 & 3 & 4 &
RIFF 4:
E5 F5 G#5 E5 F5 G#5 E5 F5 G#5 E5 F5
e -----------------------------------------------------------------------------
b -----------------------------------------------------------------------------
g -----------------------------------------------------------------------------
d -----------------------------------------------------------------------------
a ----------222-3---6-------222-3---6-------222-3---6-------222-3--------------
E ----------000-1---4-------000-1---4-------000-1---4-------000-1--------------
COUNT : 1 & 2 & 3 & 4 & 1 & 2 & 3 & 4 & 1 & 2 & 3 & 4 & 1 & 2 & 3 & 4 &
RIFF 4(b):
E5 F5 G#5 E5 F5 G#5 E5 F5 G#5 E5
e -----------------------------------------------------------------------------
b -----------------------------------------------------------------------------
g -----------------------------------------------------------------------------
d -----------------------------------------------------------------------------
a ----------222-3---6-------222-3---6-------222-3---6---2-2-2-2-2-2-2-2-2-2----
E ----------000-1---4-------000-1---4-------000-1---4---0-0-0-0-0-0-0-0-0-0----
COUNT : 1 & 2 & 3 & 4 & 1 & 2 & 3 & 4 & 1 & 2 & 3 & 4 & 1 & 2 & 3 & 4 &
RIFF 5(a):
e -----------------------------------------------------------------------------
b -----------------------------------------------------------------------------
g -----------------------------------------------------------------------------
d------------------------------------------------------------------------------
a -----------------------------------------------------------------------------
E --------0-1-1---0-1-1---0-1-1---0-1-1----------------------------------------
COUNT: 1 & 2 & 3 & 4 & 1 & 2 & 3 & 4 &
RIFF 5(b):
E5
e -----------------------------------------------------------------------------
b -----------------------------------------------------------------------------
g -----------------------------------------------------------------------------
d------------------------------------------------------------------------------
a ------------------------2----------------------------------------------------
E --------01110111011101110----------------------------------------------------
COUNT: 1 & 2 & 3 & 4 & 1 & 2 & 3 & 4 &
RIFF 6: [3/4]
e -----------------------------------------------------------------------------
b -----------------------------------------------------------------------------
g -----------------------------------------------------------------------------
d -----------------------------------------------------------------------------
a ----------7---7-7/-----------------------------------------------------------
E --------0---0----------------------------------------------------------------
COUNT: 1 & 2 & 3 &
Arrangement:
Riff 1 * 4 (gtr. 2 for last 2 only)
Riff 2 * 6 (bass & drums join in on third time)
Riff 1 * 1
Riff 3 * 1
Riff 1 * 1
Riff 3 * 1
FIRST VERSE:
Riff 2 * 4
Face the enemy, stare inside you,
Control your own thoughts, destroy, destroy 'em all
SECOND VERSE:
Riff 4 * 1
Hold F5 chord
Destroy
Riff 5(a) * 2
Riff 5(b) * 4
You censor what we breathe, predjudiced with no belief
Senseless violence all around, who is it that keep us down?
Down!
THIRD VERSE:
Riff 4(b) * 2
Riff 5(b) *4
Once all free tribes, chained down led lives
Blood boils inside me, we're not slaves we're free.
Free!
Riff 6 throughout solo.
REPEAT FIRST VERSE:
Riff 2 * 8
(Vocals first 4 times, one gtr outlines chord forms on top 3 strings for next
four bars)
Riff 4 (first bar only)
END.
Matt Garrad, Aberystwyth
* Is there no standard anymore? * [Walk, Pantera]





Ваше мнение



Капча