RIFF 1:
-------------------------------|
-------------------------------|
-------------------------------|
-------------------------------|
|--------2-------4-------5-----------------|
|--------0-------2-------3-----------------|

RIFF 2:
----------------------------------|
----------------------------------|
----------------------------------|
----------------------------------|
--------------------------8-7-----|
|---------0-0-0-0-0-0-0-0-0-0-0-0-0-0-6-5-----|

RIFF 3:
-------------------------------|
-------------------------------|
-------------------------------|
-------------------------------|
|----------2-------5-------8---------------|
|----------0-------3-------6---------------|

RIFF 4:
------------------------------------------------------|
------------------------------------------------------|
------------------------------------------------------|
------------------------------------------------------|
|----------222-3---6-------222-3---6-------222-3---6-------222-3--|
|----------000-1---4-------000-1---4-------000-1---4-------000-1--|

RIFF 4(B):
---------------------------------------------------------------|
---------------------------------------------------------------|
---------------------------------------------------------------|
---------------------------------------------------------------|
|----------222-3---6-------222-3---6-------222-3---6---2-2-2-2-2-2-2-2-2-2-|
|----------000-1---4-------000-1---4-------000-1---4---0-0-0-0-0-0-0-0-0-0-|

RIFF 5(A):
--------------------------------|
--------------------------------|
--------------------------------|
--------------------------------|
--------------------------------|
|--------0-1-1---0-1-1---0-1-1---0-1-1------|

RIFF 5(B):
------------------------------|
------------------------------|
------------------------------|
------------------------------|
-------------2----------------|
|--------01110111011101110----------------|

RIFF 6:
------------------------------|
------------------------------|
------------------------------|
------------------------------|
|----------7---7-7/-----------------------|
|--------0---0----------------------------|

Первый куплет:
RIFF 2 x 4
Face - the enemy
Stare - inside you
Control - your thoughts
Destroy - destroy ´em all

Второй куплет:
RIFF 4 x 1
RIFF 5(A) x 2
RIFF 5(B) x 4
You censor what we breathe
Pre-judice with no belief
Senseless violence all around
Who is it that keeps us down

Третий куплет:
RIFF 4(B) x 2
RIFF 5(B) x 4
Once all free tribes
Chained down led lives
Blood boils inside me
We´re not slaces, we´re free

RIFF 6 SOLO.

Повтор первого куплета:
RIFF 2 x 8
Face - the enemy
Stare - inside you
Control - your thoughts
Destroy - destroy ´em all

RIFF 4





Ваше мнение



Капча