FROM: James Johnson
Sepultura-Policia
From=Sepultura singles/soundtracks and stuff
I was watching Third World Chaos and decided to tab it up because its fun to
play.
Oh yeah if anyone knows the lyrics, I would love em =)
Figure out the palm muting yourself
This is the main riff through the song
|---------------------------------------------------------------|
|---------------------------------------------------------------|
|---------------------------------------------------------------|
|------------5-5-5-5--------------------------------------------|
|--7-7-7-7---3-3-3-3---5---5--5---5--5--------------------------|
|--5-5-5-5-------------3---3--3---3--3--------------------------|
|---------------------------------------------------------------|
|---------------------------------------------------------------|
|---------------------------------------------------------------|
|---------------------------------------------------5-5-5-5-----|
|-7---7-7-7-7-7-7-----5----5--5---5--5-----7-7-7-7--3-3-3-3-----|
|-5---5-5-5-5-5-5-----3----3--3---3--3-----5-5-5-5--------------|
|---------------------------------------------------------------|
|---------------------------------------------------------------|
|---------------------------------------------------------------|
|---------------------------------------------------------------|
|-------5---5--5---5--5-----------------------------------------|
|-------3---3--3---3--3-----------------------------------------|
I should have never tabbed this but oh well, It was fun =).
--Jim





Ваше мнение



Капча

Рекомендуем