Band: Sepultura
Song: Mine
Instrument: guitar
Tabbed by: Florent CAMPANA [email protected]

Detune your guitar of nearly 3-4 steps

Intro
-----------------------
-----------------------
-----------------------
-----------------------
-----------------------
--00-10sl-4-00-12sl-6

Verse
--------------------------
--------------------------
----4-----3----(later)-4-3
---5-----4----------------
--4-----3-----------------

Chorus
------------------
------------------
------------------
------------------
55---55-55---55-33
33-0-33-33-0-33-11

Break (drums ring)
------------------
------------------
------------------
------------------
7777777-4444444444
5555555-2222222222

Repeat intro 'n stuffs!

Have fun!

Someone can tab The Abyss? It 'll be sooo great!

C-ya!





Ваше мнение



Капча