From [email protected] Thu May 8 10:08:48 1997
Date: Sat, 5 Apr 1997 16:01:05 -0400 (AST)
From: Den Mattie
To: [email protected]
Subject: TAB: "Innerself" by "Sepultura"

x5
e| |--------------------------------| |--------------------------------|
b| |--------------------------------| |--------------------------------|
4 g|.|--------------------------------|.|-h------------------------------|
x D|.|--------------------------------|.|/\------------------------------|
4 A| |3-2-----------------------------| |788---8-------------------------|
E| |1-0-0-0-0-0-0-0-0-0-0-0-0-0-0-0-| |----7---0-0-0-0-0-0-0-0-0-0-0-0-|
p--------------------------- p-----------------------
e|--------------------------------|--------------------------------|
b|--------------------------------|--------------------------------|
g|--------------------------------|-h------------------------------|
D|--------------------------------|/\------------------------------|
A|3-2-----------------------------|788---8-------------------------|
E|1-0-0-0-0-0-0-0-0-0-0-0-0-0-0-0-|----7---0-0-0-0-0-0-0-0-0-0-0-0-|
p--------------------------- p-----------------------
x3
e| |--------------------------------| |--------------------------------|
b| |--------------------------------| |--------------------------------|
g|.|--------------------------------|.|--------------------------------|
D|.|--------------------------------|.|--------------------------------|
A| |3-2-------------------------x-x-| |3-2-----------------------------|
E| |1-0-------------------------x-x-| |1-0-----------------------------|
x4 x4
e| |--------------------------------| |--------------------------------| |
b| |--------------------------------| |--------------------------------| |
g|.|--------------------------------|.|-h------------------------------|.|
D|.|--------------------------------|.|/-\-----------------------------|.|
A| |2-------------------------------| |2-3-2---------------------------| |
E| |0-0-0-0-0-0-0-0-0-0-0-0-0-0-0-0-| |0-1-0---0-0-0-0-0-0-0-0-0-0-0-0-| |
p------------------------------- p-----------------------
x4
e| |----------------------------------------------------------------| |
b| |----------------------------------------------------------------| |
g|.|--h-------------------------------------------------------------|.|
D|.|/---\-----------------------------------------------------------|.|
A| |2---3---2-------------------------------------------------------| |
E| |0---1---0-------0---0---0---0---0---0---0---0---0---0---0---0---| |
p-----------------------------------------------
Walking these dirty streets
x2
e| |--------------------------------|--------------------------------| |
b| |--------------------------------|--------------------------------| |
g|.|-h------------------------------|-sl-----------------------------|.|
D|.|/-\-----------------------------|/-\-----------------------------|.|
A| |6-7-6---------------------------|6-7-6---------------------------| |
E| |4-5-4---4-4-4-4-4-4-4-4-4-4-4-4-|4-5-4---4-4-4-4-3-3-3-3-3-3-3-3-| |
p----------------------- p-----------------------
x2
e| |--------------------------------|--------------------------------| |
b| |--------------------------------|--------------------------------| |
g|.|--------------------------------|-sl--------------sl-------------|.|
D|.|--------------------------------|/-\-------------/-\-------------|.|
A| |6-5-5-5-4-4-4-4-6-5-5-5-3-3-3-3-|6-5---5-4-4-4-4-6-5---5-3-3-3-3-| |
E| |4-3-3-3-2-2-2-2-4-3-3-3-1-1-1-1-|4-3---3-2-2-2-2-4-3---3-1-1-1-1-| |
p------------------------------- p----------- p-----------
x3
e|----------------------------------| |--------------------------------| |
b|----------------------------------| |--------------------------------| |
g|----------------------------------|.|--------------------------------|.|
D|------------------------3-------6-|.|----------------------3-------6-|.|
A|2-2---2---2---2-2-------1-------4-| |------2-------2-------1-------4-| |
E|0-0---0---0---0-0-000000--000000--| |0000000-0000000-000000--000000--| |
p- p- p- p----- p----- p----- p----- p----- p-----
ect.. There is alittle something else after that but then just repeats
until it gets to the quick part. That I didn't try playing get. I don't
know if this is actually how it is played, if not anyone is welcome to
correct it.
Den -Da B- Mattie





Ваше мнение



Капча